Yoshis map theme ukoalele

01234567891011121314151617181920212223
E
B
G
D
A
E
B
0 1 2 3 4 5 6 7 8 9 10 11 12 13 14 15 16 17 18 19 20 21 22 23
(/) Slide Up  (\) Slide Down  (h) Hammer On  (p) Pull Off  (b) Bend (r) Release (v) Vibrato

Stave 1:

A|--------------------2-----3--3--2-----------------
E|-----------3-----3-----------------3-----3--3-----
C|--2--2--4-----4-----------------------4-----------
G|--------------------------------------------------

Stave 2:

A|--------------------2-----3--3--2-----------------------
E|-----------3-----3-----------------3-----3-----3-----3--
C|--2--2--4-----4-----------------------4-----------------
G|--------------------------------------------------------

Stave 3:

A|--
E|--
C|--
G|--

							http://www.guitartabcreator.com
Chords

Instruments
{"strings":[[[".",".",".",".",".",".",2,"_",3,3,2,".",".",".",".","_"],[".",".",".",3,".",3,".","_",".",".",".",3,".",3,3,"_"],[2,2,4,".",4,".",".","_",".",".",".",".",4,".",".","_"],[".",".",".",".",".",".",".","_",".",".",".",".",".",".",".","_"]],[[".",".",".",".",".",".",2,"_",3,3,2,".",".",".","_",".","_","."],[".",".",".",3,".",3,".","_",".",".",".",3,".",3,"_",3,"_",3],[2,2,4,".",4,".",".","_",".",".",".",".",4,".","_",".","_","."],[".",".",".",".",".",".",".","_",".",".",".",".",".",".","_",".","_","."]],[[],[],[],[]]],"numberofstrings":4,"notes":["A","E","C","G"],"capo":0,"stringnotes":["A4","E4","C3","G3"],"comments":["Stave 1:","Stave 2:","Stave 3:"],"timing":[["W","W","W","W","W","W","W","W","W","W","W","W","W","W","W","W"],["W","W","W","W","W","W","W","W","W","W","W","W","W","W","W","W","W","W"],[]],"timingvisible":false,"tabcounter":0,"stave":2,"totalstaves":3,"instrument":"ukulele","selectedtuning":"ukulele","version":"13"}
Submitted by uKoalele on Fri, 2022-07-08 11:53