uKoalele Intro

01234567891011121314151617181920212223
E
B
G
D
A
E
B
0 1 2 3 4 5 6 7 8 9 10 11 12 13 14 15 16 17 18 19 20 21 22 23
(/) Slide Up  (\) Slide Down  (h) Hammer On  (p) Pull Off  (b) Bend (r) Release (v) Vibrato

Stave 1:

A|--2-----2--2--2--3--5--2-----2--2--3--2--0-----
E|--2-----2--2-----------1-----1--1--------------
C|--2-----2--2-----------2-----2--2--------------
G|--0-----0--0-----------1-----1--1--------------

Stave 2:

A|--3-----3--3--3--5/7--5-----3--3--3--5--3--0-----------2-----
E|--3-----3--3----------------2--2--2-----------------2--------
C|--4-----4--4----------------3--3--3--------------2-----------
G|--2-----2--2----------------2--2--2-----------0--------------

Stave 3:

A|--
E|--
C|--
G|--

							http://www.guitartabcreator.com
Chords

Instruments
{"strings":[[[2,"_",2,2,2,3,5,2,"_",2,2,3,2,0,"_"],[2,"_",2,2,".",".",".",1,"_",1,1,".",".",".","_"],[2,"_",2,2,".",".",".",2,"_",2,2,".",".",".","_"],[0,"_",0,0,".",".",".",1,"_",1,1,".",".",".","_"]],[[3,"_",3,3,3,5,"/",7,5,"_",3,3,3,5,3,0,".",".",".",2,"_"],[3,"_",3,3,".",".",".",".",".","_",2,2,2,".",".",".",".",".",2,".","_"],[4,"_",4,4,".",".",".",".",".","_",3,3,3,".",".",".",".",2,".",".","_"],[2,"_",2,2,".",".",".",".",".","_",2,2,2,".",".",".",0,".",".",".","_"]],[[],[],[],[]]],"numberofstrings":4,"notes":["A","E","C","G"],"capo":0,"stringnotes":["A4","E4","C3","G3"],"comments":["Stave 1:","Stave 2:","Stave 3:"],"timing":[["W",null,"W","W","W","W","W","W",null,"W","W","W","W","W"],["W",null,"W","W","W","W",null,"W","W",null,"W","W","W","W","W","W","W","W","W","W"],[]],"timingvisible":false,"tabcounter":0,"stave":2,"totalstaves":3,"instrument":"mandolin","selectedtuning":"mandolin","version":"13"}

Member for

4 months
About Me
ukulele player and tab creator from germany
Submitted by uKoalele on Sun, 2021-02-21 02:23