SOD Aerials uKoalele

01234567891011121314151617181920212223
E
B
G
D
A
E
B
0 1 2 3 4 5 6 7 8 9 10 11 12 13 14 15 16 17 18 19 20 21 22 23
(/) Slide Up  (\) Slide Down  (h) Hammer On  (p) Pull Off  (b) Bend (r) Release (v) Vibrato

Stave 1:

A|-----3--------3--------3--------3--------3--------
E|--------3--------3--------3--------3--------3-----
C|--3--------2--------0--------0--------0--------0--
G|--------------------------------------------------

Stave 2:

A|-----3--------3--------3--------3--------3--------
E|--------3--------3--------3--------3--------3-----
C|--5--------3--------2--------2--------2--------2--
G|--------------------------------------------------

Stave 3:

A|-----3--------3--------3--------3--------3--------
E|--------3--------3--------3--------3-----------3--
C|--3--------5--------7--------8--------7-----5-----
G|--------------------------------------------------

Stave 4:

A|-----3--------3--------3--------3--------3--------
E|--------3--------3--------3--------3--------3-----
C|--3--------2--------0--------0--------0--------0--
G|--------------------------------------------------

Stave 5:

A|--3--------1--------------------------------------
E|-----3--------3-----3--------3--------3--------3--
C|--------0--------0-----0--0-----0--0-----0--0-----
G|--------------------------------------------------

Stave 6:

A|--5--------1--------------------------------------
E|-----3--------3-----3--------3--------3--------3--
C|--------0--------0-----0--0-----0--0-----0--0-----
G|--------------------------------------------------

Stave 7:

A|--3--------5--------6--------8--------6-----5-----
E|-----3--------3--------3--------3--------------3--
C|--------0--------0--------0--------0-----0--------
G|--------------------------------------------------

Stave 8:

A|--3--------1--------3--------3--------3-----------
E|-----3--------3--------3--------3--------3--------
C|--------0--------0--------0--------0--------0-----
G|--------------------------------------------------

							http://www.guitartabcreator.com
Chords

Instruments
{"strings":[[[".",3,".",".",3,".",".",3,".",".",3,".",".",3,".","."],[".",".",3,".",".",3,".",".",3,".",".",3,".",".",3,"."],[3,".",".",2,".",".",0,".",".",0,".",".",0,".",".",0],[".",".",".",".",".",".",".",".",".",".",".",".",".",".",".","."]],[[".",3,".",".",3,".",".",3,".",".",3,".",".",3,".","."],[".",".",3,".",".",3,".",".",3,".",".",3,".",".",3,"."],[5,".",".",3,".",".",2,".",".",2,".",".",2,".",".",2],[".",".",".",".",".",".",".",".",".",".",".",".",".",".",".","."]],[[".",3,".",".",3,".",".",3,".",".",3,".",".",3,".","."],[".",".",3,".",".",3,".",".",3,".",".",3,".",".",".",3],[3,".",".",5,".",".",7,".",".",8,".",".",7,".",5,"."],[".",".",".",".",".",".",".",".",".",".",".",".",".",".",".","."]],[[".",3,".",".",3,".",".",3,".",".",3,".",".",3,".","."],[".",".",3,".",".",3,".",".",3,".",".",3,".",".",3,"."],[3,".",".",2,".",".",0,".",".",0,".",".",0,".",".",0],[".",".",".",".",".",".",".",".",".",".",".",".",".",".",".","."]],[[3,".",".",1,".",".",".",".",".",".",".",".",".",".",".","."],[".",3,".",".",3,".",3,".",".",3,".",".",3,".",".",3],[".",".",0,".",".",0,".",0,0,".",0,0,".",0,0,"."],[".",".",".",".",".",".",".",".",".",".",".",".",".",".",".","."]],[[5,".",".",1,".",".",".",".",".",".",".",".",".",".",".","."],[".",3,".",".",3,".",3,".",".",3,".",".",3,".",".",3],[".",".",0,".",".",0,".",0,0,".",0,0,".",0,0,"."],[".",".",".",".",".",".",".",".",".",".",".",".",".",".",".","."]],[[3,".",".",5,".",".",6,".",".",8,".",".",6,".",5,"."],[".",3,".",".",3,".",".",3,".",".",3,".",".",".",".",3],[".",".",0,".",".",0,".",".",0,".",".",0,".",0,".","."],[".",".",".",".",".",".",".",".",".",".",".",".",".",".",".","."]],[[3,".",".",1,".",".",3,".",".",3,".",".",3,".",".","_"],[".",3,".",".",3,".",".",3,".",".",3,".",".",3,".","_"],[".",".",0,".",".",0,".",".",0,".",".",0,".",".",0,"_"],[".",".",".",".",".",".",".",".",".",".",".",".",".",".",".","_"]]],"numberofstrings":4,"notes":["A","E","C","G"],"capo":0,"stringnotes":["A4","E4","C3","G3"],"comments":["Stave 1:","Stave 2:","Stave 3:","Stave 4:","Stave 5:","Stave 6:","Stave 7:","Stave 8:"],"timing":[["W","W","W","W","W","W","W","W","W","W","W","W","W","W","W","W"],["W","W","W","W","W","W","W","W","W","W","W","W","W","W","W","W"],["W","W","W","W","W","W","W","W","W","W","W","W","W","W","W","W"],["W","W","W","W","W","W","W","W","W","W","W","W","W","W","W","W"],["W","W","W","W","W","W","W","W","W","W","W","W","W","W","W","W"],["W","W","W","W","W","W","W","W","W","W","W","W","W","W","W","W"],["W","W","W","W","W","W","W","W","W","W","W","W","W","W","W","W"],["W","W","W","W","W","W","W","W","W","W","W","W","W","W","W","W"]],"timingvisible":false,"tabcounter":16,"stave":7,"totalstaves":8,"instrument":"ukulele","selectedtuning":"ukulele","version":"13"}
Submitted by uKoalele on Thu, 2022-07-14 09:31