She Said No BWU uKoalele

01234567891011121314151617181920212223
E
B
G
D
A
E
B
0 1 2 3 4 5 6 7 8 9 10 11 12 13 14 15 16 17 18 19 20 21 22 23
(/) Slide Up  (\) Slide Down  (h) Hammer On  (p) Pull Off  (b) Bend (r) Release (v) Vibrato

Stave 1:

A|--2-----4-----2-----2-----
E|--2-----3-----4-----4-----
C|--3-----3-----3-----4-----
G|--4-----3-----1-----4-----

Stave 2:

A|--2-----2-----4--6-----2--1--------
E|--4-----2-----3--4-----4--2--------
C|--4-----3-----3--4-----3--1--------
G|--4-----4-----3--4-----1--3--------

Stave 3:

A|--2-----4--6-----2-----2-----
E|--2-----3--3-----4-----4-----
C|--3-----3--3-----3-----4-----
G|--5-----3--3-----1-----4-----

Stave 4:

A|--2-----
E|--2-----
C|--3-----
G|--4-----

							http://www.guitartabcreator.com
Chords

Instruments
{"strings":[[[2,"_",4,"_",2,"_",2,"_"],[2,"_",3,"_",4,"_",4,"_"],[3,"_",3,"_",3,"_",4,"_"],[4,"_",3,"_",1,"_",4,"_"]],[[2,"_",2,"_",4,6,"_",2,1,"_","."],[4,"_",2,"_",3,4,"_",4,2,"_","."],[4,"_",3,"_",3,4,"_",3,1,"_","."],[4,"_",4,"_",3,4,"_",1,3,"_","."]],[[2,"_",4,6,"_",2,"_",2,"_"],[2,"_",3,3,"_",4,"_",4,"_"],[3,"_",3,3,"_",3,"_",4,"_"],[5,"_",3,3,"_",1,"_",4,"_"]],[[2,"_"],[2,"_"],[3,"_"],[4,"_"]]],"numberofstrings":4,"notes":["A","E","C","G"],"capo":0,"stringnotes":["A4","E4","C3","G3"],"comments":["Stave 1:","Stave 2:","Stave 3:","Stave 4:"],"timing":[["W","W","W","W","W","W","W","W"],["W","W","W","W","W","W","W","W","W","W"],["W","W","W","W","W","W","W","W","W"],["W","W"]],"timingvisible":false,"tabcounter":2,"stave":3,"totalstaves":4,"instrument":"ukulele","selectedtuning":"ukulele","version":"13"}
Submitted by uKoalele on Wed, 2022-07-13 04:32