Joji Yukon Ukulele by uKoalele Youtube

01234567891011121314151617181920212223
E
B
G
D
A
E
B
0 1 2 3 4 5 6 7 8 9 10 11 12 13 14 15 16 17 18 19 20 21 22 23
(/) Slide Up  (\) Slide Down  (h) Hammer On  (p) Pull Off  (b) Bend (r) Release (v) Vibrato

Stave 1:

A|--------------5-----2-----
E|--2-----0-----3-----3-----
C|--2-----0-----4-----4-----
G|--2-----0-----0-----0-----

Stave 2:

A|--------0-----7-----------
E|--3-----2-----7-----------
C|--2-----1-----7-----------
G|--0-----2-----9-----------

Stave 3:

A|--------0-----------3-----
E|--------2-----------3-----
C|-----2-----------4--------
G|--2--------2--5--------5--

Stave 4:

A|--------2--------2--------
E|--------3--------3--------
C|-----4--------4--------4--
G|--0--------0--------0-----

Stave 5:

A|--------2-----------0-----2-----
E|--------3-----------2-----3-----
C|-----2-----------1--------4-----
G|--0--------0--2--------2--0-----

Stave 6:

A|--0-----3-----2-----2-----
E|--2-----3-----3-----3-----
C|--2-----4-----4-----4-----
G|--2-----5-----0-----0-----

Stave 7:

A|--2-----0-----2-----2-----
E|--3-----2-----3-----3-----
C|--2-----1-----4-----4-----
G|--0-----2-----0-----0-----

							http://www.guitartabcreator.com
Chords

Instruments
{"strings":[[[".","_",".","_",5,"_",2,"_"],[2,"_",0,"_",3,"_",3,"_"],[2,"_",0,"_",4,"_",4,"_"],[2,"_",0,"_",0,"_",0,"_"]],[[".","_",0,"_",7,"_","_","_"],[3,"_",2,"_",7,"_","_","_"],[2,"_",1,"_",7,"_","_","_"],[0,"_",2,"_",9,"_","_","_"]],[[".",".",0,".",".",".",3,"."],[".",".",2,".",".",".",3,"."],[".",2,".",".",".",4,".","."],[2,".",".",2,5,".",".",5]],[[".",".",2,".",".",2,".","."],[".",".",3,".",".",3,".","."],[".",4,".",".",4,".",".",4],[0,".",".",0,".",".",0,"."]],[[".",".",2,".",".",".",0,".",2,"_"],[".",".",3,".",".",".",2,".",3,"_"],[".",2,".",".",".",1,".",".",4,"_"],[0,".",".",0,2,".",".",2,0,"_"]],[[0,"_",3,"_",2,"_",2,"_"],[2,"_",3,"_",3,"_",3,"_"],[2,"_",4,"_",4,"_",4,"_"],[2,"_",5,"_",0,"_",0,"_"]],[[2,"_",0,"_",2,"_",2,"_"],[3,"_",2,"_",3,"_",3,"_"],[2,"_",1,"_",4,"_",4,"_"],[0,"_",2,"_",0,"_",0,"_"]]],"numberofstrings":4,"notes":["A","E","C","G"],"capo":0,"stringnotes":["A4","E4","C3","G3"],"comments":["Stave 1:","Stave 2:","Stave 3:","Stave 4:","Stave 5:","Stave 6:","Stave 7:"],"timing":[["W","W","W","W","W","W","W","W"],["W","W","W","W","W","W","W","W"],["W","W","W","W","W","W","W","W"],["W","W","W","W","W","W","W","W"],["W","W","W","W","W","W","W","W","W","W"],["W","W","W","W","W","W","W","W"],["W","W","W","W","W","W","W","W"]],"timingvisible":false,"tabcounter":8,"stave":6,"totalstaves":7,"instrument":"ukulele","selectedtuning":"ukulele","version":"13"}
Submitted by uKoalele on Thu, 2022-09-01 11:11