joji glimpse of us ukoalele

01234567891011121314151617181920212223
E
B
G
D
A
E
B
0 1 2 3 4 5 6 7 8 9 10 11 12 13 14 15 16 17 18 19 20 21 22 23
(/) Slide Up  (\) Slide Down  (h) Hammer On  (p) Pull Off  (b) Bend (r) Release (v) Vibrato

Stave 1:

A|--------------------------------------
E|--1-----3--4--3-----4--6--4--3--1-----
C|--1-----------3-----------3-----0-----
G|--3-----------3-----------5-----------

Stave 2:

A|--------------3--1--1-----------------
E|--1-----3--4--3-----------3--4--1-----
C|--1-----------3-----0-----------0-----
G|--3-----------------1-----------------

Stave 3:

A|--3-----1-----4-----3-----
E|--1-----1-----3-----4-----
C|--0-----1-----3-----3-----
G|--1-----3-----3-----5-----

Stave 4:

A|-----------------------------4-----
E|--1-----3-----4-----1-----3--3-----
C|--1-----------------1--------3-----
G|--3-----------------3--------------

Stave 5:

A|--1--1--4--4--3--4--3--3--
E|--1--1--3--3--4--3--4--4--
C|--1--1--3--3--3--3--5--5--
G|--3--3--3--3--5--3--5--5--

Stave 6:

A|--
E|--
C|--
G|--

Stave 7:

A|--1-----4-----3-----
E|--1-----3-----4-----
C|--1-----3-----5-----
G|--3-----3-----5-----

Stave 8:

A|--
E|--
C|--
G|--

							http://www.guitartabcreator.com
Chords

Instruments
{"strings":[[[".","_",".",".",".","_",".",".",".",".",".","_"],[1,"_",3,4,3,"_",4,6,4,3,1,"_"],[1,"_",".",".",3,"_",".",".",3,".",0,"_"],[3,"_",".",".",3,"_",".",".",5,".",".","_"]],[[".","_",".",".",3,1,1,"_",".",".",".","_"],[1,"_",3,4,3,".",".","_",3,4,1,"_"],[1,"_",".",".",3,".",0,"_",".",".",0,"_"],[3,"_",".",".",".",".",1,"_",".",".",".","_"]],[[3,"_",1,"_",4,"_",3,"_"],[1,"_",1,"_",3,"_",4,"_"],[0,"_",1,"_",3,"_",3,"_"],[1,"_",3,"_",3,"_",5,"_"]],[[".","_",".","_",".","_",".","_",".",4,"_"],[1,"_",3,"_",4,"_",1,"_",3,3,"_"],[1,"_",".","_",".","_",1,"_",".",3,"_"],[3,"_",".","_",".","_",3,"_",".",".","_"]],[[1,1,4,4,3,4,3,3],[1,1,3,3,4,3,4,4],[1,1,3,3,3,3,5,5],[3,3,3,3,5,3,5,5]],[[],[],[],[]],[[1,"_",4,"_",3,"_"],[1,"_",3,"_",4,"_"],[1,"_",3,"_",5,"_"],[3,"_",3,"_",5,"_"]],[[],[],[],[]]],"numberofstrings":4,"notes":["A","E","C","G"],"capo":0,"stringnotes":["A4","E4","C3","G3"],"comments":["Stave 1:","Stave 2:","Stave 3:","Stave 4:","Stave 5:","Stave 6:","Stave 7:","Stave 8:"],"timing":[["W","W","W","W","W","W","W","W","W","W","W","W"],["W","W","W","W","W","W","W","W","W","W","W","W"],["W","W","W","W","W","W","W","W"],["W","W","W","W","W","W","W","W","W","W","W"],["W","W","W","W","W","W","W","W"],[],["W","W","W","W","W","W"],[]],"timingvisible":false,"tabcounter":0,"stave":7,"totalstaves":8,"instrument":"ukulele","selectedtuning":"ukulele","version":"13"}
Submitted by uKoalele on Sun, 2022-06-19 08:51