the entertainer uKoalele

01234567891011121314151617181920212223
E
B
G
D
A
E
B
0 1 2 3 4 5 6 7 8 9 10 11 12 13 14 15 16 17 18 19 20 21 22 23
(/) Slide Up  (\) Slide Down  (h) Hammer On  (p) Pull Off  (b) Bend (r) Release (v) Vibrato

Stave 1:

A|--5--7--3--0-----2-----------------------------
E|--------------------3--------------------------
C|--------------------------2--4--0--------------
G|-----------------------------------2-----4--0--

Stave 2:

A|--5--7--3--0--2--0-----------2--------------
E|--------------------4--3-----1--------------
C|-----------------------------2--------2--3--
G|--------------------------------------------

Stave 3:

A|-----3-----3-----3--3--3--5--6--7--3--5--7-----5--3-----------
E|--0-----0-----0--1--0-----------0--------7--7-----0-----------
C|--0-----0--------0--0-----------0--------5--------0-----2--3--
G|--0-----3--------2--0-----------0-----------------0-----------

Stave 4:

A|-----3-----3-----3--3-----0--------0--3--3/7--5--3--0--5-----------
E|--0-----0-----0--1--0--------3--2----------------------7-----------
C|--0-----0--------0--0-----------0----------------------5-----2--3--
G|--0-----3--------2--0-----------2----------------------------------

Stave 5:

A|--7--3--5--7--3--5--3--7--3--5--7--3--5--3--
E|--0--------6-----------5--------4-----------
C|--0--------0-----------0--------0-----------
G|--0--------0-----------0--------0-----------

Stave 6:

A|--7--3--5--7-----5--3-----3-----------
E|--3--------7--7-----0-----0-----------
C|--0--------5--------0-----0-----2--3--
G|--------------------0-----0-----------

Stave 7:

A|--
E|--
C|--
G|--

							http://www.guitartabcreator.com
Chords

Instruments
{"strings":[[[5,7,3,0,"_",2,".","_",".",".",".",".","_",".","."],[".",".",".",".","_",".",3,"_",".",".",".",".","_",".","."],[".",".",".",".","_",".",".","_",2,4,0,".","_",".","."],[".",".",".",".","_",".",".","_",".",".",".",2,"_",4,0]],[[5,7,3,0,2,0,".",".","_",2,"_","_",".","."],[".",".",".",".",".",".",4,3,"_",1,"_","_",".","."],[".",".",".",".",".",".",".",".","_",2,"_","_",2,3],[".",".",".",".",".",".",".",".","_",".","_","_",".","."]],[[".",3,".",3,".",3,3,3,5,6,7,3,5,7,".",5,3,"_",".","."],[0,".",0,".",0,1,0,".",".",".",0,".",".",7,7,".",0,"_",".","."],[0,".",0,".",".",0,0,".",".",".",0,".",".",5,".",".",0,"_",2,3],[0,".",3,".",".",2,0,".",".",".",0,".",".",".",".",".",0,"_",".","."]],[[".",3,".",3,".",3,3,"_",0,".",".",0,3,3,"/",7,5,3,0,5,"_",".","."],[0,".",0,".",0,1,0,"_",".",3,2,".",".",".",".",".",".",".",".",7,"_",".","."],[0,".",0,".",".",0,0,"_",".",".",0,".",".",".",".",".",".",".",".",5,"_",2,3],[0,".",3,".",".",2,0,"_",".",".",2,".",".",".",".",".",".",".",".",".","_",".","."]],[[7,3,5,7,3,5,3,7,3,5,7,3,5,3],[0,".",".",6,".",".",".",5,".",".",4,".",".","."],[0,".",".",0,".",".",".",0,".",".",0,".",".","."],[0,".",".",0,".",".",".",0,".",".",0,".",".","."]],[[7,3,5,7,".",5,3,"_",3,"_",".","."],[3,".",".",7,7,".",0,"_",0,"_",".","."],[0,".",".",5,".",".",0,"_",0,"_",2,3],[".",".",".",".",".",".",0,"_",0,"_",".","."]],[[],[],[],[]]],"numberofstrings":4,"notes":["A","E","C","G"],"capo":0,"stringnotes":["A4","E4","C3","G3"],"comments":["Stave 1:","Stave 2:","Stave 3:","Stave 4:","Stave 5:","Stave 6:","Stave 7:"],"timing":[["W","W","W","W","W","W","W","W","W","W","W","W","W","W","W"],["W","W","W","W","W","W","W","W","W","W","W","W","W","W"],["W","W","W","W","W","W","W","W","W","W","W","W","W","W","W","W","W","W","W","W"],["W","W","W","W","W","W","W","W","W","W","W","W","W","W",null,"W","W","W","W","W","W","W","W"],["W","W","W","W","W","W","W","W","W","W","W","W","W","W"],["W","W","W","W","W","W","W","W","W","W","W","W"],[]],"timingvisible":false,"tabcounter":0,"stave":6,"totalstaves":7,"instrument":"ukulele","selectedtuning":"ukulele","version":"13"}
Submitted by uKoalele on Wed, 2022-10-05 12:48