dont worry be uKoalele

01234567891011121314151617181920212223
E
B
G
D
A
E
B
0 1 2 3 4 5 6 7 8 9 10 11 12 13 14 15 16 17 18 19 20 21 22 23
(/) Slide Up  (\) Slide Down  (h) Hammer On  (p) Pull Off  (b) Bend (r) Release (v) Vibrato

Stave 1:

A|--14-----11--9--11---------
E|--------------------11-----
C|---------------------------
G|---------------------------

Stave 2:

A|--9-----------------------
E|-----11--9------9--11--9--
C|------------11------------
G|--------------------------

Stave 3:

A|--9-----------------------
E|-----11--9------9--11--9--
C|------------11------------
G|--------------------------

Stave 4:

A|--------------------------
E|--11--9-------------------
C|---------11--8--11--------
G|--------------------------

Stave 5:

A|--2-----4-----2-----
E|--2-----4-----4-----
C|--3-----4-----4-----
G|--4-----4-----4-----

Stave 6:

A|--2--2--2--2--
E|--2--4--2--4--
C|--3--4--3--4--
G|--4--4--4--4--

							http://www.guitartabcreator.com
Chords

Instruments
{"strings":[[[14,"_",11,9,11,".","_"],[".","_",".",".",".",11,"_"],[".","_",".",".",".",".","_"],[".","_",".",".",".",".","_"]],[[9,".",".",".",".",".","."],[".",11,9,".",9,11,9],[".",".",".",11,".",".","."],[".",".",".",".",".",".","."]],[[9,".",".",".",".",".","."],[".",11,9,".",9,11,9],[".",".",".",11,".",".","."],[".",".",".",".",".",".","."]],[[".",".",".",".",".","_","_"],[11,9,".",".",".","_","_"],[".",".",11,8,11,"_","_"],[".",".",".",".",".","_","_"]],[[2,"_",4,"_",2,"_"],[2,"_",4,"_",4,"_"],[3,"_",4,"_",4,"_"],[4,"_",4,"_",4,"_"]],[[2,2,2,2],[2,4,2,4],[3,4,3,4],[4,4,4,4]]],"numberofstrings":4,"notes":["A","E","C","G"],"capo":0,"stringnotes":["A4","E4","C3","G3"],"comments":["Stave 1:","Stave 2:","Stave 3:","Stave 4:","Stave 5:","Stave 6:"],"timing":[["W","W","W","W","W","W","W"],["W","W","W","W","W","W","W"],["W","W","W","W","W","W","W"],["W","W","W","W","W","W","W"],["W","W","W","W","W","W"],["W","W","W","W"]],"timingvisible":false,"tabcounter":3,"stave":5,"totalstaves":6,"instrument":"ukulele","selectedtuning":"ukulele","version":"13"}
Submitted by uKoalele on Wed, 2022-08-17 05:01