bwu scared of the dark vocal melody tabs

01234567891011121314151617181920212223
E
B
G
D
A
E
B
0 1 2 3 4 5 6 7 8 9 10 11 12 13 14 15 16 17 18 19 20 21 22 23
(/) Slide Up  (\) Slide Down  (h) Hammer On  (p) Pull Off  (b) Bend (r) Release (v) Vibrato

Stave 1:

A|--------------------------------------------
E|--2-----2--2--4-----------------------------
C|-----3-----------3-----3--1--1--1--3--1-----
G|--------------------------------------------

Stave 2:

A|--------------------------------------------
E|--------------------------------------------
C|--1-----1--1--3--1-----1-----1-----1--------
G|-----4--------------------4-----4-----1-----

Stave 3:

A|--------------------------------------------
E|--------------------------------------------
C|--------3--1--------------------3--1--------
G|--1--1--------4--4-----1--1--1--------4--1--

Stave 4:

A|--------------------------------------------
E|--------------------------------------------
C|--------3--1-----1-----1-----1--1--3--------
G|--1--1--------4-----------4-----------1-----

Stave 5:

A|--------------------------------------------
E|--------2--2--4--2--------------------------
C|--3-----------------3--1--1--1-----1--4--3--
G|--------------------------------4-----------

Stave 6:

A|--------------------------------
E|--------2--4--2-----------------
C|--3--------------3--1-----------
G|--------------------------4-----

							http://www.guitartabcreator.com
Chords

Instruments
{"strings":[[[".",".",".",".",".",".","_",".",".",".",".",".",".","_"],[2,".",2,2,4,".","_",".",".",".",".",".",".","_"],[".",3,".",".",".",3,"_",3,1,1,1,3,1,"_"],[".",".",".",".",".",".","_",".",".",".",".",".",".","_"]],[[".",".",".",".",".",".","_",".",".",".",".",".",".","_"],[".",".",".",".",".",".","_",".",".",".",".",".",".","_"],[1,".",1,1,3,1,"_",1,".",1,".",1,".","_"],[".",4,".",".",".",".","_",".",4,".",4,".",1,"_"]],[[".",".",".",".",".",".","_",".",".",".",".",".",".","."],[".",".",".",".",".",".","_",".",".",".",".",".",".","."],[".",".",3,1,".",".","_",".",".",".",3,1,".","."],[1,1,".",".",4,4,"_",1,1,1,".",".",4,1]],[[".",".",".",".",".",".","_",".",".",".",".",".",".","_"],[".",".",".",".",".",".","_",".",".",".",".",".",".","_"],[".",".",3,1,".",1,"_",1,".",1,1,3,".","_"],[1,1,".",".",4,".","_",".",4,".",".",".",1,"_"]],[[".","_",".",".",".",".",".",".",".",".",".",".",".","."],[".","_",2,2,4,2,".",".",".",".",".",".",".","."],[3,"_",".",".",".",".",3,1,1,1,".",1,4,3],[".","_",".",".",".",".",".",".",".",".",4,".",".","."]],[[".","_",".",".",".",".",".","_",".","_"],[".","_",2,4,2,".",".","_",".","_"],[3,"_",".",".",".",3,1,"_",".","_"],[".","_",".",".",".",".",".","_",4,"_"]]],"numberofstrings":4,"notes":["A","E","C","G"],"capo":0,"stringnotes":["A4","E4","C3","G3"],"comments":["Stave 1:","Stave 2:","Stave 3:","Stave 4:","Stave 5:","Stave 6:"],"timing":[["W","W","W","W","W","W","W","W","W","W","W","W","W","W"],["W","W","W","W","W","W","W","W","W","W","W","W","W","W"],["W","W","W","W","W","W","W","W","W","W","W","W","W","W"],["W","W","W","W","W","W","W","W","W","W","W","W","W","W"],["W","W","W","W","W","W","W","W","W","W","W","W","W","W"],["W","W","W","W","W","W","W","W","W","W"]],"timingvisible":false,"tabcounter":10,"stave":5,"totalstaves":6,"instrument":"ukulele","selectedtuning":"ukulele","version":"13"}
Submitted by uKoalele on Tue, 2022-09-06 02:26