bwu contigo ukoalele

01234567891011121314151617181920212223
E
B
G
D
A
E
B
0 1 2 3 4 5 6 7 8 9 10 11 12 13 14 15 16 17 18 19 20 21 22 23
(/) Slide Up  (\) Slide Down  (h) Hammer On  (p) Pull Off  (b) Bend (r) Release (v) Vibrato

Stave 1:

A|--2-----2--2-----5--2--0--2-----
E|--0-----0--3--3-----------------
C|--0-----0--2--------------------
G|--0-----0--0--------------------

Stave 2:

A|--2-----2--2--2--0--2h3--2--0-----
E|--2-----2--3-------------------3--
C|--3-----3--4----------------------
G|--2-----2--0----------------------

Stave 3:

A|--2-----2--2-----5--7--2p0--2-----
E|--0-----0--3--3-------------------
C|--0-----0--2----------------------
G|--0-----0--0----------------------

Stave 4:

A|--2-----2--2--------2--------------
E|--2-----2--3--------3--------------
C|--3-----3--4--------4--------------
G|--2-----2--0--------0--------------

Stave 5:

A|--2-----2-----0-----2--------------
E|--0-----3-----2-----3--------------
C|--0-----2-----2-----4--------------
G|--0-----0-----2-----0--------------

Stave 6:

A|--10--9--7-----------------------
E|------------10--7/10\7-----7-----
C|------------------------9--------
G|---------------------------------

Stave 7:

A|--------------------------
E|-----7-----7-----7--------
C|--9-----9-----9-----------
G|--------------------------

Stave 8:

A|--
E|--
C|--
G|--

							http://www.guitartabcreator.com
Chords

Instruments
{"strings":[[[2,"_",2,2,".",5,2,0,2,"_"],[0,"_",0,3,3,".",".",".",".","_"],[0,"_",0,2,".",".",".",".",".","_"],[0,"_",0,0,".",".",".",".",".","_"]],[[2,"_",2,2,2,0,2,"h",3,2,0,"."],[2,"_",2,3,".",".",".",".",".",".",".",3],[3,"_",3,4,".",".",".",".",".",".",".","."],[2,"_",2,0,".",".",".",".",".",".",".","."]],[[2,"_",2,2,".",5,7,2,"p",0,2,"_"],[0,"_",0,3,3,".",".",".",".",".",".","_"],[0,"_",0,2,".",".",".",".",".",".",".","_"],[0,"_",0,0,".",".",".",".",".",".",".","_"]],[[2,"_",2,2,"_","_",2,"_","_","_","_"],[2,"_",2,3,"_","_",3,"_","_","_","_"],[3,"_",3,4,"_","_",4,"_","_","_","_"],[2,"_",2,0,"_","_",0,"_","_","_","_"]],[[2,"_",2,"_",0,"_",2,"_","_","_","_"],[0,"_",3,"_",2,"_",3,"_","_","_","_"],[0,"_",2,"_",2,"_",4,"_","_","_","_"],[0,"_",0,"_",2,"_",0,"_","_","_","_"]],[[10,9,7,".",".",".",".",".",".",".",".","_"],[".",".",".",10,7,"/",10,"\\",7,".",7,"_"],[".",".",".",".",".",".",".",".",".",9,".","_"],[".",".",".",".",".",".",".",".",".",".",".","_"]],[[".",".",".",".",".",".","_","_"],[".",7,".",7,".",7,"_","_"],[9,".",9,".",9,".","_","_"],[".",".",".",".",".",".","_","_"]],[[],[],[],[]]],"numberofstrings":4,"notes":["A","E","C","G"],"capo":0,"stringnotes":["A4","E4","C3","G3"],"comments":["Stave 1:","Stave 2:","Stave 3:","Stave 4:","Stave 5:","Stave 6:","Stave 7:","Stave 8:"],"timing":[["W","W","W","W","W","W","W","W","W","W"],["W","W","W","W","W","W","W",null,"W","W","W","W"],["W","W","W","W","W","W","W","W",null,"W","W","W"],["W","W","W","W","W","W","W","W","W","W","W"],["W","W","W","W","W","W","W","W","W","W","W"],["W","W","W","W","W",null,"W",null,"W","W","W","W"],["W","W","W","W","W","W","W","W"],[]],"timingvisible":false,"tabcounter":0,"stave":7,"totalstaves":8,"instrument":"ukulele","selectedtuning":"ukulele","version":"13"}
Submitted by uKoalele on Sat, 2022-08-13 03:11