ACNH THEME

01234567891011121314151617181920212223
E
B
G
D
A
E
B
0 1 2 3 4 5 6 7 8 9 10 11 12 13 14 15 16 17 18 19 20 21 22 23
(/) Slide Up  (\) Slide Down  (h) Hammer On  (p) Pull Off  (b) Bend (r) Release (v) Vibrato

Stave 1:

A|--------5--------------------
E|--5--------8-----5--------3--
C|-----5--------------5--2--0--
G|-----------------------------

Stave 2:

A|--------0--5--7--8--3----------8--3-----
E|--1--3----------------------6-----------
C|-----------------------2/5-----------0--
G|----------------------------------------

Stave 3:

A|--0--0-----5--3-----0-----------
E|--1-----1-----1--------1-----3--
C|--0-----------3--------2--2--0--
G|--2--------------------3--------

Stave 4:

A|--------0--5--7--8-----
E|--1--3-----5--------8--
C|--0--------5-----------
G|-----------5-----------

							http://www.guitartabcreator.com
Chords

Instruments
{"strings":[[[".",".",5,".","_",".",".",".","."],[5,".",".",8,"_",5,".",".",3],[".",5,".",".","_",".",5,2,0],[".",".",".",".","_",".",".",".","."]],[[".",".",0,5,7,8,3,".",".",".",".",8,3,"."],[1,3,".",".",".",".",".",".",".",".",6,".",".","."],[".",".",".",".",".",".",".",2,"/",5,".",".",".",0],[".",".",".",".",".",".",".",".",".",".",".",".",".","."]],[[0,0,".",5,3,"_",0,".",".","."],[1,".",1,".",1,"_",".",1,".",3],[0,".",".",".",3,"_",".",2,2,0],[2,".",".",".",".","_",".",3,".","."]],[[".",".",0,5,7,8,"."],[1,3,".",5,".",".",8],[0,".",".",5,".",".","."],[".",".",".",5,".",".","."]]],"numberofstrings":4,"notes":["A","E","C","G"],"capo":0,"stringnotes":["A4","E4","C3","G3"],"comments":["Stave 1:","Stave 2:","Stave 3:","Stave 4:"],"timing":[["W","W","W","W","W","W","W","W","W"],["W","W","W","W","W","W","W","W",null,"W","W","W","W","W"],["W","W","W","W","W","W","W","W","W","W"],["W","W","W","W","W","W","W"]],"timingvisible":false,"tabcounter":7,"stave":3,"totalstaves":4,"instrument":"ukulele","selectedtuning":"ukulele","version":"13"}
Submitted by uKoalele on Fri, 2022-07-01 05:32