Sound will begin in 5 seconds

Lipstick Tonic

01234567891011121314151617181920212223
E
B
G
D
A
E
B
0 1 2 3 4 5 6 7 8 9 10 11 12 13 14 15 16 17 18 19 20 21 22 23
Song Science #1: How Pros Use 6 Chords to Write Hit Songs
(/) Slide Up  (\) Slide Down  (h) Hammer On  (p) Pull Off  (b) Bend (r) Release (v) Vibrato

Stave 1:

E|-10b10-7-6-------------------9----6-7-9-11-9-7-6-------9----10-11-10-8----------------------
B|-----------7-6-6-7-9b9-7-6-7---------------------9-7-6-----------------11-10-8-7------------
G|---------------------------------------------------------------------------------10-9-8-7-6-
D|--------------------------------------------------------------------------------------------
A|--------------------------------------------------------------------------------------------
E|--------------------------------------------------------------------------------------------

Stave 2:

E|--------------8-9-8--------------------------------------------------------------------
B|------------9-------9----------------------------------------------7-----5b6r5---------
G|-6/7-10-9-8-----------8------0/8---8-10-9-8-7-0/7--------6-7-8-------6-8-------6-------
D|------------------------10-9-----9----------------8-9-10-------6-8---------------6-6b7-
A|---------------------------------------------------------------------------------------
E|---------------------------------------------------------------------------------------

http://www.guitartabcreator.com
Guitar Tab Creator is intended to store guitar tab created through the tool. It currently does not support in-line text editing. Any text you place in here will be lost. If you need to comment on your tab, please use the "Tab Notes" section located below.