Sound will begin in 5 seconds

Unholy sorrows

Chords
01234567891011121314151617181920212223
E
B
G
D
A
E
B
0 1 2 3 4 5 6 7 8 9 10 11 12 13 14 15 16 17 18 19 20 21 22 23
Song Science #1: How Pros Use 6 Chords to Write Hit Songs
(/) Slide Up  (\) Slide Down  (h) Hammer On  (p) Pull Off  (b) Bend (r) Release (v) Vibrato

Stave 1:

E|-------------------------------------------------------------------
B|--------------15--------------------------------15-----------------
G|------12-------------12------12---------12-------------12------12--
D|--14------14-------------14---------14------14-------------14------
A|-------------------------------------------------------------------
E|-------------------------------------------------------------------

Stave 2:

E|-------------------------------------------------------------------
B|--------------15--------------------------------15-----------------
G|------14-------------14------14---------14-------------14------14--
D|--12------12-------------12---------12------12-------------12------
A|-------------------------------------------------------------------
E|-------------------------------------------------------------------

Stave 3:

E|-------------------------------------------------------------------
B|--------------13--------------------------------13-----------------
G|------12-------------12------12---------12-------------12------12--
D|--10------10-------------10---------10------10-------------10------
A|-------------------------------------------------------------------
E|-------------------------------------------------------------------

Stave 4:

E|-------------------------------------------------------
B|-----------8\7-----------------------7/8--10--8--7-----
G|-----9----------9-----9--------9-----------------------
D|--9-----9----------9--------9-----9--------------------
A|-------------------------------------------------------
E|-------------------------------------------------------

Stave 5:

E|------------
B|-----15-----
G|-----12-----
D|-----14-----
A|-----14-----
E|-----0------

Stave 6:

E|--------------------------------------------------
B|--8--------8--------8-----8--------8--------8-----
G|-----9--------9--------9-----9--------9--------9--
D|--------9--------9--------------9--------9--------
A|--7--------7--------7-----7--------7--------7-----
E|--------------------------------------------------

Stave 7:

E|--------------------------------------------------
B|--7--------7--------7-----7--------7--------7-----
G|-----7--------7--------7-----7--------7--------7--
D|--------7--------7--------------7--------7--------
A|--5--------5--------5-----5--------5--------5-----
E|--------------------------------------------------

Stave 8:

E|--------------------------------------------------
B|--5--------5--------5-----5--------5--------5-----
G|-----5--------5--------5-----5--------5--------5--
D|--------5--------5--------------5--------5--------
A|--3--------3--------3-----3--------3--------3-----
E|--------------------------------------------------

Stave 9:

E|--------------------------------------------------
B|--4--------4--------4-----5--------5--------5-----
G|-----4--------4--------4-----5--------5--------5--
D|--------4--------4--------------5--------5--------
A|--2--------2--------2-----3--------3--------3-----
E|--------------------------------------------------

http://www.guitartabcreator.com
Guitar Tab Creator is intended to store guitar tab created through the tool. It currently does not support in-line text editing. Any text you place in here will be lost. If you need to comment on your tab, please use the "Tab Notes" section located below.