Sound will begin in 5 seconds

Lass uns gehen - Revolverheld Lead

Chords
01234567891011121314151617181920212223
E
B
G
D
A
E
B
0 1 2 3 4 5 6 7 8 9 10 11 12 13 14 15 16 17 18 19 20 21 22 23
Song Science #1: How Pros Use 6 Chords to Write Hit Songs
(/) Slide Up  (\) Slide Down  (h) Hammer On  (p) Pull Off  (b) Bend (r) Release (v) Vibrato

Stave 1:

E|-6-5---------6-5---------6-5-3----1-------6-5------6----5-
B|-----6-----------3----------------------------6----6----6-
G|----------------------------------------------------------
D|----------------------------------------------------------
A|----------------------------------------------------------
E|----------------------------------------------------------

Stave 2:

E|-6-5---------6-5---------6-5-3----1-------6-5------6----8-
B|-----6-----------3----------------------------6----6----6-
G|----------------------------------------------------------
D|----------------------------------------------------------
A|----------------------------------------------------------
E|----------------------------------------------------------

Stave 3:

E|-----8-----6------------8-----6------------8-----6--------------10-------8-------
B|-6-6---6-6---6-6------------------------------------------11-11----11-11---11-11-
G|--------------------8-8---8-8---8-8----8-8---8-8---8-8---------------------------
D|---------------------------------------------------------------------------------
A|---------------------------------------------------------------------------------
E|---------------------------------------------------------------------------------

Stave 4:

E|---5---5---5---5------6---6---6---6------6---6---6---6------6---6---6---6-
B|-6---6---6---6------8---8---8---8------8---8---8---8------6---6---6---6---
G|--------------------------------------------------------------------------
D|--------------------------------------------------------------------------
A|--------------------------------------------------------------------------
E|--------------------------------------------------------------------------

Stave 5:

E|-6-5------13-13-11----10----------6-5------13-13-11----10------
B|-----6----------------------11--------3----------------------8-
G|---------------------------------------------------------------
D|---------------------------------------------------------------
A|---------------------------------------------------------------
E|---------------------------------------------------------------

Stave 6:

E|-6-5-3----13-13-11----10----------8-----8-----8-----8--8--8--8-----6----5-
B|----------------------------11----10----10----10----10-10-10-10----6----6-
G|--------------------------------------------------------------------------
D|--------------------------------------------------------------------------
A|--------------------------------------------------------------------------
E|--------------------------------------------------------------------------

Stave 7:

E|-10-------------10-------------11-
B|-11-------------11-------------11-
G|-10-------------12-------------12-
D|----------------------------------
A|----------------------------------
E|----------------------------------

Stave 8:

E|-13-13-13-13-13-13-13-13----13-13-13-10-10-10-10-10-
B|-11-11-13-11-11-13-11-11----11-11-13-11-11-13-11-11-
G|----------------------------------------------------
D|----------------------------------------------------
A|----------------------------------------------------
E|----------------------------------------------------

http://www.guitartabcreator.com
Guitar Tab Creator is intended to store guitar tab created through the tool. It currently does not support in-line text editing. Any text you place in here will be lost. If you need to comment on your tab, please use the "Tab Notes" section located below.