Sound will begin in 5 seconds

Hotel California - Solo

01234567891011121314151617181920212223
E
B
G
D
A
E
B
0 1 2 3 4 5 6 7 8 9 10 11 12 13 14 15 16 17 18 19 20 21 22 23
(/) Slide Up  (\) Slide Down  (h) Hammer On  (p) Pull Off  (b) Bend (r) Release (v) Vibrato

Stave 1:

E|-------------------------------------------------------------------------------
B|-----------10h12--12/15-----10h12----------------7-----------------------------
G|-----9/11--------------------------11\9-----7h9-----7--------------------------
D|-------------------------------------------------------9--8-----9--12p9--7--8--
A|-------------------------------------------------------------------------------
E|-------------------------------------------------------------------------------

Stave 2:

E|----------------------------------------------------10----------------
B|-------7-------------------7--------------7--10/12------10--7--10--9--
G|--7h9-----7-----------7h9-----7---------------------------------------
D|-------------9--8----------------9--8--9------------------------------
A|----------------------------------------------------------------------
E|----------------------------------------------------------------------

Stave 3:

E|--7-----10/12--10--12p10-------------10----------------------10-------------------------
B|-----7--------------------12--10/12------12--10--8--------------------------------------
G|-------------------------------------------------------9/11---------11\9--7-----7\6--7--
D|----------------------------------------------------------------------------------------
A|----------------------------------------------------------------------------------------
E|----------------------------------------------------------------------------------------

Stave 4:

E|-----------------------------------------------------------------------------7-----------------
B|--------7b8--7b8r7-----------7b8--7b8--7b8r7-----------------7--10--------7--------------------
G|--7--9--------------9--7--9-------------------9--7-----9b11---------9b11--------9b11--7--9/11--
D|-----------------------------------------------------------------------------------------------
A|-----------------------------------------------------------------------------------------------
E|-----------------------------------------------------------------------------------------------

Stave 5:

E|------------------------7-----------7-----------7----------------------------
B|--------7--10--------7-----------7-----------7-------------------------------
G|--9b11---------9b11--------9b11--------9b11--------9b11r9--7--9--7--9/11--11/
D|-----------------------------------------------------------------------------
A|-----------------------------------------------------------------------------
E|-----------------------------------------------------------------------------

Stave 6:

E|----------------------------10-------------------10-----------------
B|---------------------10/12------12-----7--10/12------12--11--10--9--
G|--14--9/11--7-------------------------------------------------------
D|---------------9----------------------------------------------------
A|--------------------------------------------------------------------
E|--------------------------------------------------------------------

Stave 7:

E|-------------------------------17----------------------------15--16--17/19-----------------------
B|---------12--15/17--15--17b19------19b17--15--17--15--17b19-----------------17b19--15-----17b19--
G|--14b16------------------------------------------------------------------------------------------
D|-------------------------------------------------------------------------------------------------
A|-------------------------------------------------------------------------------------------------
E|-------------------------------------------------------------------------------------------------

Stave 8:

E|--------------------17-----17----------------------------------------17-----17---------------------------
B|--19r17--15--17b19-------------19r17--17b19-----19r17--15-----17b19-------------19r17--17b19--19r17--15--
G|---------------------------------------------------------------------------------------------------------
D|---------------------------------------------------------------------------------------------------------
A|---------------------------------------------------------------------------------------------------------
E|---------------------------------------------------------------------------------------------------------

Stave 9:

E|--17b19--------------10------10---------------------
B|---------------7/12------12---------------------11--
G|---------------------------------10--9p7------------
D|------------------------------------------9--8------
A|----------------------------------------------------
E|----------------------------------------------------

Stave 10:

E|--12b14--14--14--14--14--14--14--14--14--14r12--12p10------12--10------
B|-------------------------------------------------------12----------12--
G|-----------------------------------------------------------------------
D|-----------------------------------------------------------------------
A|-----------------------------------------------------------------------
E|-----------------------------------------------------------------------

Stave 11:

E|--------------------------
B|--7/10--7-------------10--
G|-----------9\7--9/11------
D|--------------------------
A|--------------------------
E|--------------------------

Stave 12:

E|--------10------9------7---------------------------------------10/14--12p10--------------
B|------------10-----10-----7--10--8--8--7-------------------------------------------------
G|--9/11------------------------------------7--------------7-------------------12--14--11--
D|---------------------------------------------7\5--4/5/7----------------------------------
A|-----------------------------------------------------------------------------------------
E|-----------------------------------------------------------------------------------------

Stave 13:

E|----------------------------9--10--12--
B|-------------10--12--11----------------
G|--11--12-------------------------------
D|---------------------------------------
A|---------------------------------------
E|---------------------------------------

Stave 14:

E|--14--10------14--10------14--10------14--10------14--10---------12--9------12--9------12--9--12/18--
B|----------12----------12----------12----------12----------12------------11---------11----------------
G|-----------------------------------------------------------------------------------------------------
D|-----------------------------------------------------------------------------------------------------
A|-----------------------------------------------------------------------------------------------------
E|-----------------------------------------------------------------------------------------------------

Stave 15:

E|--12--9------12--9------12--9------12--9------12--9---------10--7-----10--7-----10--7--10/16--
B|---------10---------10---------10---------10---------10------------9---------9----------------
G|----------------------------------------------------------------------------------------------
D|----------------------------------------------------------------------------------------------
A|----------------------------------------------------------------------------------------------
E|----------------------------------------------------------------------------------------------

Stave 16:

E|--10--7-----10--7-----10--7-----10--7-----10--7--------10--5-----10--5-----10--5--10/14--
B|---------8---------8---------8---------8---------8------------7---------7----------------
G|-----------------------------------------------------------------------------------------
D|-----------------------------------------------------------------------------------------
A|-----------------------------------------------------------------------------------------
E|-----------------------------------------------------------------------------------------

Stave 17:

E|--7--3-----7--3-----7--3-----7--3-----7--3-----7/9--6-----9--6-----9--6-----9--6-----9--6--7--9--
B|--------5--------5--------5--------5--------5----------7--------7--------7--------7--------------
G|-------------------------------------------------------------------------------------------------
D|-------------------------------------------------------------------------------------------------
A|-------------------------------------------------------------------------------------------------
E|-------------------------------------------------------------------------------------------------

http://www.guitartabcreator.com
Guitar Tab Creator is intended to store guitar tab created through the tool. It currently does not support in-line text editing. Any text you place in here will be lost. If you need to comment on your tab, please use the "Tab Notes" section located below.