Sound will begin in 5 seconds

Ascend

Chords
01234567891011121314151617181920212223
E
B
G
D
A
E
B
0 1 2 3 4 5 6 7 8 9 10 11 12 13 14 15 16 17 18 19 20 21 22 23
Song Science #1: How Pros Use 6 Chords to Write Hit Songs
(/) Slide Up  (\) Slide Down  (h) Hammer On  (p) Pull Off  (b) Bend (r) Release (v) Vibrato

Stave 1:

E|------------------------------------------------
B|------------------------------------------------
G|------------------------------------------------
D|--9-----9-----11--11--11-----12-----12--12--12--
A|--9-----9-----9---9---9------9------9---9---9---
E|--7-----7-----7---7---7------7------7---7---7---

Stave 2:

E|-----------------------------------------
B|-----------------------------------------
G|--------------------------6-----6--6--6--
D|--7-----7-----9--9--9--------------------
A|--7-----7-----7--7--7-----7-----7--7--7--
E|--5-----5-----5--5--5-----5-----5--5--5--

Stave 3:

E|--------------------------------------------
B|--------------------------------------------
G|--------------------------------------------
D|--4-----4-----7-----7--7-----5-----5--5--5--
A|--5-----5-----5-----5--5-----5-----5--5--5--
E|--3-----3-----3-----3--3-----3-----3--3--3--

Stave 4:

E|-------------------------------------------------
B|-------------------------------------------------
G|-------------------------------------------------
D|--------9-----9--9-----9--------9-----11-----12--
A|-------------------------------------------------
E|--7--7-----7--------7-----7--7-----7------7------

Stave 5:

E|-----------------------------------------------
B|-----------------------------------------------
G|--------------------------------------------6--
D|--------7-----7--7-----7--------7-----9--------
A|-----------------------------------------------
E|--5--5-----5--------5-----5--5-----5-----5-----

Stave 6:

E|-----------------------------------------------
B|-----------------------------------------------
G|-----------------------------------------------
D|--------4-----4--4-----4--------7-----5-----4--
A|-----------------------------------------------
E|--3--3-----3--------3-----3--3-----3-----3-----

Stave 7:

E|-----------------------------------------
B|-----------------------------------------
G|--------------------------------------6--
D|--9--11--12--9--14--12--9--11--12--4-----
A|--9--11--12--9--14--12--9--11--12--5--7--
E|--7--9---10--7--12--10--7--9---10--3--5--

Stave 8:

E|------------------------------------
B|------------------------------------
G|------------------------------------
D|--5--9--5--9--4--11--4--11--12--11--
A|--5--9--5--9--5--9---5--9---9---9---
E|--3--7--3--7--3--7---3--7---7---7---

http://www.guitartabcreator.com
Guitar Tab Creator is intended to store guitar tab created through the tool. It currently does not support in-line text editing. Any text you place in here will be lost. If you need to comment on your tab, please use the "Tab Notes" section located below.