Sound will begin in 5 seconds

Hubava si moq goro (3/4)

Chords
01234567891011121314151617181920212223
E
B
G
D
A
E
B
0 1 2 3 4 5 6 7 8 9 10 11 12 13 14 15 16 17 18 19 20 21 22 23
Song Science #1: How Pros Use 6 Chords to Write Hit Songs
(/) Slide Up  (\) Slide Down  (h) Hammer On  (p) Pull Off  (b) Bend (r) Release (v) Vibrato

Stave 1:

E|--0--|--5-----------4--5--|--7-----------5--7--|--8--------------7--|--5-----------7--5--|--
B|-----|--------0-----------|--------5-----------|---------10---------|--------6-----------|--
G|-----|-----0-----0--------|-----4-----4--------|-----10------10-----|-----7-----7--------|--
D|-----|--------------------|--------------------|--------------------|--0-----------------|--
A|-----|--0-----------------|--------------------|--8-----------------|--------------------|--
E|-----|--------------------|--0-----------------|--------------------|--------------------|--

Stave 2:

E|--4-----------5--|--7-----------8--7--|--5--------5/8/12/17v--|-----------------------|--
B|--------5--------|--------5-----------|--------5--------------|-----------------------|--
G|-----4-----4-----|-----4-----4--------|-----5-----------------|-----------------------|--
D|-----------------|--------------------|-----------------------|-----------------------|--
A|-----------------|--------------------|--0--------------------|-----------------------|--
E|--0--------------|--0-----------------|-----------------------|-----------------------|--

Stave 3:

E|--8--|--12-----------8--7--|--5-----------8--|--12--------------8--7--|--5-----------7--5--|--
B|-----|---------8-----------|--------6--------|------------------------|--------6-----------|--
G|-----|------9-----9--------|-----5-----5-----|----------14------------|-----7-----7--------|--
D|-----|---------------------|--3--------------|------14------14--------|--0-----------------|--
A|-----|---------------------|-----------------|--0---------------------|--------------------|--
E|-----|--8------------------|-----------------|------------------------|--------------------|--

Stave 4:

E|--4-----------5--|--7-----------8--7--|--5--------5/8/12/17v--|-----------------------|--
B|--------5--------|--------5-----------|--------5--------------|-----------------------|--
G|-----4-----4-----|-----4-----4--------|-----5-----------------|-----------------------|--
D|-----------------|--------------------|-----------------------|-----------------------|--
A|-----------------|--------------------|--0--------------------|-----------------------|--
E|--0--------------|--0-----------------|-----------------------|-----------------------|--

http://www.guitartabcreator.com
Guitar Tab Creator is intended to store guitar tab created through the tool. It currently does not support in-line text editing. Any text you place in here will be lost. If you need to comment on your tab, please use the "Tab Notes" section located below.