Sound will begin in 5 seconds

Passenger Let here go 2 LOWG

Chords
01234567891011121314151617181920212223
E
B
G
D
A
E
B
0 1 2 3 4 5 6 7 8 9 10 11 12 13 14 15 16 17 18 19 20 21 22 23
Song Science #1: How Pros Use 6 Chords to Write Hit Songs
(/) Slide Up  (\) Slide Down  (h) Hammer On  (p) Pull Off  (b) Bend (r) Release (v) Vibrato

Capo Fret 2

Stave 1:

A|--0h2--0------------------2-----|--
E|----------3-------3----------0--|--
A|--2----------2h4--4--4p0--4-----|--
G|--------------------------------|--

Stave 2:

A|--0h2--0----------------2--0--|--
E|----------3-------3--0--3--2--|--
A|--2----------2h4--4-----4--2--|--
G|------------------------0--2--|--

Stave 3:

A|--0h2--0-------------0h3--5p2-------|--
E|----------3-------3-------0----3h5--|--
A|--2----------2p4--0-------0----2----|--
G|--------------------------0----0----|--

Stave 4:

A|--3--2--0--0--2--
E|--0--3--2--3--3--
A|--0--2--2--2--4--
G|--0--0--2--0--0--

Stave 5:

A|--3--2--0-----0--
E|--0--3--2-----2--
A|--0--2--2-----2--
G|--0--0--2-----2--

Stave 6:

A|--2--3--0--2--
E|--3--0--2--2--
A|--4--0--2--2--
G|--0--0--2--4--

Stave 7:

A|--2--3--0--0--
E|--3--0--2--2--
A|--4--0--2--2--
G|--0--0--2--2--

http://www.guitartabcreator.com
Guitar Tab Creator is intended to store guitar tab created through the tool. It currently does not support in-line text editing. Any text you place in here will be lost. If you need to comment on your tab, please use the "Tab Notes" section located below.