A minor pentatonic

Chords

01234567891011121314151617181920212223
E
B
G
D
A
E
B
0 1 2 3 4 5 6 7 8 9 10 11 12 13 14 15 16 17 18 19 20 21 22 23
(/) Slide Up  (\) Slide Down  (h) Hammer On  (p) Pull Off  (b) Bend (r) Release (v) Vibrato

Position 1:

E|--------------------------------5--8--5--------------------------------
B|--------------------------5--8-----------8--5--------------------------
G|--------------------5--7-----------------------7--5--------------------
D|--------------5--7-----------------------------------7--5--------------
A|--------5--7-----------------------------------------------7--5--------
E|--5--8-----------------------------------------------------------8--5--

Position 2:

E|--------------------------------3--5--3--------------------------------
B|--------------------------3--5-----------5--3--------------------------
G|--------------------2--5-----------------------5--2--------------------
D|--------------2--5-----------------------------------5--2--------------
A|--------3--5-----------------------------------------------5--3--------
E|--3--5-----------------------------------------------------------5--3--

Mix it up

E|--------------------------------5--8--5\3-----------------------------------
B|--------------------------5--8-------------5--3-----------------------------
G|--------------------5--7-------------------------5--2-----------------------
D|--------------5--7-------------------------------------5--2-----------------
A|--------5--7-------------------------------------------------5--3-----------
E|--5--8-------------------------------------------------------------5--3--5--

Run up

E|--------------------------------------------------------------------------------5-----5--8--5--------------------------------------------------------------
B|--------------------------------------------------------------5-----5--8--5--8-----8-----------8--5--8--5-----5--------------------------------------------
G|--------------------------------------------5-----5--7--5--7-----7-----------------------------------------7-----7--5--7--5-----5--------------------------
D|--------------------------5-----5--7--5--7-----7-----------------------------------------------------------------------------7-----7--5--7--5-----5--------
A|--------5-----5--7--5--7-----7-----------------------------------------------------------------------------------------------------------------7-----7--5--
E|--5--8-----8-----------------------------------------------------------------------------------------------------------------------------------------------



E|--------------------------------
B|--------------------------------
G|--------------------------------
D|--------------------------------
A|--7--5-----5--------------------
E|--------8-----8--5--8--5--3--5--

							http://www.guitartabcreator.com
Instruments
{"strings":[[[".",".",".",".",".",".",".",".",".",".",5,8,5,".",".",".",".",".",".",".",".",".","."],[".",".",".",".",".",".",".",".",5,8,".",".",".",8,5,".",".",".",".",".",".",".","."],[".",".",".",".",".",".",5,7,".",".",".",".",".",".",".",7,5,".",".",".",".",".","."],[".",".",".",".",5,7,".",".",".",".",".",".",".",".",".",".",".",7,5,".",".",".","."],[".",".",5,7,".",".",".",".",".",".",".",".",".",".",".",".",".",".",".",7,5,".","."],[5,8,".",".",".",".",".",".",".",".",".",".",".",".",".",".",".",".",".",".",".",8,5]],[[".",".",".",".",".",".",".",".",".",".",3,5,3,".",".",".",".",".",".",".",".",".","."],[".",".",".",".",".",".",".",".",3,5,".",".",".",5,3,".",".",".",".",".",".",".","."],[".",".",".",".",".",".",2,5,".",".",".",".",".",".",".",5,2,".",".",".",".",".","."],[".",".",".",".",2,5,".",".",".",".",".",".",".",".",".",".",".",5,2,".",".",".","."],[".",".",3,5,".",".",".",".",".",".",".",".",".",".",".",".",".",".",".",5,3,".","."],[3,5,".",".",".",".",".",".",".",".",".",".",".",".",".",".",".",".",".",".",".",5,3]],[[".",".",".",".",".",".",".",".",".",".",5,8,5,"\\",3,".",".",".",".",".",".",".",".",".",".","."],[".",".",".",".",".",".",".",".",5,8,".",".",".",".",".",5,3,".",".",".",".",".",".",".",".","."],[".",".",".",".",".",".",5,7,".",".",".",".",".",".",".",".",".",5,2,".",".",".",".",".",".","."],[".",".",".",".",5,7,".",".",".",".",".",".",".",".",".",".",".",".",".",5,2,".",".",".",".","."],[".",".",5,7,".",".",".",".",".",".",".",".",".",".",".",".",".",".",".",".",".",5,3,".",".","."],[5,8,".",".",".",".",".",".",".",".",".",".",".",".",".",".",".",".",".",".",".",".",".",5,3,5]],[[".",".",".",".",".",".",".",".",".",".",".",".",".",".",".",".",".",".",".",".",".",".",".",".",".",".",5,".",5,8,5,".",".",".",".",".",".",".",".",".",".",".",".",".",".",".",".",".",".",".","."],[".",".",".",".",".",".",".",".",".",".",".",".",".",".",".",".",".",".",".",".",5,".",5,8,5,8,".",8,".",".",".",8,5,8,5,".",5,".",".",".",".",".",".",".",".",".",".",".",".",".","."],[".",".",".",".",".",".",".",".",".",".",".",".",".",".",5,".",5,7,5,7,".",7,".",".",".",".",".",".",".",".",".",".",".",".",".",7,".",7,5,7,5,".",5,".",".",".",".",".",".",".","."],[".",".",".",".",".",".",".",".",5,".",5,7,5,7,".",7,".",".",".",".",".",".",".",".",".",".",".",".",".",".",".",".",".",".",".",".",".",".",".",".",".",7,".",7,5,7,5,".",5,".","."],[".",".",5,".",5,7,5,7,".",7,".",".",".",".",".",".",".",".",".",".",".",".",".",".",".",".",".",".",".",".",".",".",".",".",".",".",".",".",".",".",".",".",".",".",".",".",".",7,".",7,5],[5,8,".",8,".",".",".",".",".",".",".",".",".",".",".",".",".",".",".",".",".",".",".",".",".",".",".",".",".",".",".",".",".",".",".",".",".",".",".",".",".",".",".",".",".",".",".",".",".",".","."]],[[".",".",".",".",".",".",".",".",".","."],[".",".",".",".",".",".",".",".",".","."],[".",".",".",".",".",".",".",".",".","."],[".",".",".",".",".",".",".",".",".","."],[7,5,".",5,".",".",".",".",".","."],[".",".",8,".",8,5,8,5,3,5]]],"numberofstrings":6,"notes":["E","B","G","D","A","E","B"],"capo":0,"stringnotes":["E4","B3","G3","D3","A2","E2"],"comments":["Position 1:","Position 2:","Mix it up","Run up",""],"timing":[["W","W","W","W","W","W","W","W","W","W","W","W","W","W","W","W","W","W","W","W","W","W","W"],["W","W","W","W","W","W","W","W","W","W","W","W","W","W","W","W","W","W","W","W","W","W","W"],["W","W","W","W","W","W","W","W","W","W","W","W","W","W","W","W","W","W","W","W","W","W","W","W","W","W"],["W","W","W","W","W","W","W","W","W","W","W","W","W","W","W","W","W","W","W","W","W","W","W","W","W","W","W","W","W","W","W","W","W","W","W","W","W","W","W","W","W","W","W","W","W","W","W","W","W","W","W"],["W","W","W","W","W","W","W","W","W","W"]],"timingvisible":false,"tabcounter":10,"stave":4,"totalstaves":5,"instrument":"6guitar","selectedtuning":"6_standard","version":"13"}

Member for

1 week
Submitted by tylersimmons on Wed, 2020-09-16 18:51