Sound will begin in 5 seconds

Only

Chords
01234567891011121314151617181920212223
E
B
G
D
A
E
B
0 1 2 3 4 5 6 7 8 9 10 11 12 13 14 15 16 17 18 19 20 21 22 23
(/) Slide Up  (\) Slide Down  (h) Hammer On  (p) Pull Off  (b) Bend (r) Release (v) Vibrato

Stave 1:

E|--------------
B|--------------
G|--------------
D|--------------
A|--5--5--5--5--
E|--5--4--3--2--

Stave 2:

E|-----------------
B|-----------------
G|-----------------
D|-----------------
A|--5--7---9---12--
E|--7--10--12--10--

Stave 3:

E|-----------------
B|-----------------
G|-----------------
D|-----------------
A|--12--12--11--9--
E|--10--9---7---5--

Stave 4:

E|---------------------
B|---------------------
G|---------------------
D|---------------------
A|--12--12--11--10--9--
E|--10--9---7-------5--

http://www.guitartabcreator.com
Guitar Tab Creator is intended to store guitar tab created through the tool. It currently does not support in-line text editing. Any text you place in here will be lost. If you need to comment on your tab, please use the "Tab Notes" section located below.