Point Finger Exercise

01234567891011121314151617181920212223
E
B
G
D
A
E
B
0 1 2 3 4 5 6 7 8 9 10 11 12 13 14 15 16 17 18 19 20 21 22 23
(/) Slide Up  (\) Slide Down  (h) Hammer On  (p) Pull Off  (b) Bend (r) Release (v) Vibrato

Stave 1:

E|-----------------------------------------------------------------------------1--2--3--4--5--
B|--------------------------------------------------------------1--2--3--4--5-----------------
G|-----------------------------------------------1--2--3--4--5--------------------------------
D|--------------------------------1--2--3--4--5-----------------------------------------------
A|-----------------1--2--3--4--5--------------------------------------------------------------
E|--1--2--3--4--5-----------------------------------------------------------------------------

Stave 2:

E|--5--4--3--2--1--------------------------------------------------------------------------------
B|-----------------5--4--3--2--1-----------------------------------------------------------------
G|--------------------------------5--4--3--2--1--------------------------------------------------
D|-----------------------------------------------5--4--3--2--1-----------------------------------
A|--------------------------------------------------------------5--4--3--2--1--------------------
E|-----------------------------------------------------------------------------5--4--3--2--1-----

							http://www.guitartabcreator.com
Chords

Tab Notes
Use only your 1st finger!!
Instruments
{"strings":[[[".",".",".",".",".",".",".",".",".",".",".",".",".",".",".",".",".",".",".",".",".",".",".",".",".",1,2,3,4,5],[".",".",".",".",".",".",".",".",".",".",".",".",".",".",".",".",".",".",".",".",1,2,3,4,5,".",".",".",".","."],[".",".",".",".",".",".",".",".",".",".",".",".",".",".",".",1,2,3,4,5,".",".",".",".",".",".",".",".",".","."],[".",".",".",".",".",".",".",".",".",".",1,2,3,4,5,".",".",".",".",".",".",".",".",".",".",".",".",".",".","."],[".",".",".",".",".",1,2,3,4,5,".",".",".",".",".",".",".",".",".",".",".",".",".",".",".",".",".",".",".","."],[1,2,3,4,5,".",".",".",".",".",".",".",".",".",".",".",".",".",".",".",".",".",".",".",".",".",".",".",".","."]],[[5,4,3,2,1,".",".",".",".",".",".",".",".",".",".",".",".",".",".",".",".",".",".",".",".",".",".",".",".",".","."],[".",".",".",".",".",5,4,3,2,1,".",".",".",".",".",".",".",".",".",".",".",".",".",".",".",".",".",".",".",".","."],[".",".",".",".",".",".",".",".",".",".",5,4,3,2,1,".",".",".",".",".",".",".",".",".",".",".",".",".",".",".","."],[".",".",".",".",".",".",".",".",".",".",".",".",".",".",".",5,4,3,2,1,".",".",".",".",".",".",".",".",".",".","."],[".",".",".",".",".",".",".",".",".",".",".",".",".",".",".",".",".",".",".",".",5,4,3,2,1,".",".",".",".",".","."],[".",".",".",".",".",".",".",".",".",".",".",".",".",".",".",".",".",".",".",".",".",".",".",".",".",5,4,3,2,1,"."]]],"numberofstrings":6,"notes":["E","B","G","D","A","E","B"],"capo":0,"stringnotes":["E4","B3","G3","D3","A2","E2"],"comments":["Stave 1:","Stave 2:"],"timing":[[null,"W","W","W","W","W","W","W","W","W","W","W","W","W","W","W","W","W","W","W","W","W","W","W",null,"W","W","W","W","W","W"],[null,"W","W","W","W","W","W","W","W","W","W","W","W","W","W","W","W",null,"W","W","W","W","W","W","W","W","W","W","W","W","W"]],"timingvisible":false,"tabcounter":31,"stave":1,"totalstaves":2,"instrument":"6guitar","selectedtuning":"6_standard","version":"13"}

Member for

9 months
Submitted by tyed-up on Thu, 2021-01-21 18:37