Sound will begin in 5 seconds

To Love As Death

01234567891011121314151617181920212223
E
B
G
D
A
E
B
0 1 2 3 4 5 6 7 8 9 10 11 12 13 14 15 16 17 18 19 20 21 22 23
Song Science #1: How Pros Use 6 Chords to Write Hit Songs
(/) Slide Up  (\) Slide Down  (h) Hammer On  (p) Pull Off  (b) Bend (r) Release (v) Vibrato

Stave 1:

D|-------------------------------
A|-------------------------------
F|-------------------------------
C|----8-----7----5------8-----7--
G|----10----8----8------10----8--
C|-------------------------------

Stave 2:

D|------------------------------------------------------------
A|------------------------------------------------------------
F|------------------------------------------------------------
C|--------8------8------8------8------8------8------8------8--
G|----10-----10-----10-----10-----10-----10-----10-----10-----
C|------------------------------------------------------------

Stave 3:

D|----------------------------------------------------
A|----------------------------------------------------
F|----------------------------------------------------
C|-------7-----7-----7-----7-----7-----7-----5-----5--
G|----8-----8-----8-----8-----8-----8-----8-----8-----
C|----------------------------------------------------

Stave 4:

D|------------------------------------------------------------
A|------------------------------------------------------------
F|------------------------------------------------------------
C|--------8------8------8------8------8------8------8------8--
G|----10-----10-----10-----10-----10-----10-----10-----10-----
C|------------------------------------------------------------

Stave 5:

D|----------------------------------------------------
A|----------------------------------------------------
F|----------------------------------------------------
C|-------7-----7-----7-----7-----7-----7-----5-----5--
G|----8-----8-----8-----8-----8-----8-----8-----8-----
C|----------------------------------------------------

Stave 6:

D|----------------------------------------------------
A|----------------------------------------------------
F|----------------------------------------------------
C|----5--5--5--5--5--5--5--5--5--5--5--5--5--5--5--5--
G|----5--5--5--5--5--5--5--5--5--5--5--5--5--5--5--5--
C|----5--5--5--5--5--5--5--5--5--5--5--5--5--5--5--5--

Stave 7:

D|----------------------------------------------------
A|----------------------------------------------------
F|----------------------------------------------------
C|----8--8--8--8--8--8--8--8--3--3--3--3--3--3--3--3--
G|----8--8--8--8--8--8--8--8--3--3--3--3--3--3--3--3--
C|----8--8--8--8--8--8--8--8--3--3--3--3--3--3--3--3--

Stave 8:

D|----------------------------------------------------
A|----------------------------------------------------
F|----------------------------------------------------
C|----5--5--5--5--5--5--5--5--5--5--5--5--5--5--5--5--
G|----5--5--5--5--5--5--5--5--5--5--5--5--5--5--5--5--
C|----5--5--5--5--5--5--5--5--5--5--5--5--5--5--5--5--

Stave 9:

D|--------------------------------------------------
A|--------------------------------------------------
F|--------------------------------------------------
C|----8--8--8--8--8--8--8--8----3--3--3----3--3--3--
G|----8--8--8--8--8--8--8--8----3--3--3----3--3--3--
C|----8--8--8--8--8--8--8--8----3--3--3----3--3--3--

Stave 10:

D|-----------------------------------
A|-----------------------------------
F|-----------------------------------
C|----0----8--7--3----3--3--5--3--2--
G|----0----8--7--3----3--3--5--3--2--
C|----0----8--7--3----3--3--5--3--2--

Stave 11:

D|----------------------------------
A|----------------------------------
F|----------------------------------
C|----0----8--7--3------3--3--5--7--
G|----0----8--7--3------3--3--5--7--
C|----0----8--7--3------3--3--5--7--

Stave 12:

D|-----------------------------------
A|-----------------------------------
F|-----------------------------------
C|----0----8--7--3----3--3--5--3--2--
G|----0----8--7--3----3--3--5--3--2--
C|----0----8--7--3----3--3--5--3--2--

Stave 13:

D|----------------------------------------------------
A|----------------------------------------------------
F|----------------------------------------------------
C|----8--8--8--8--8--8--8--8--7--7--7--7--7--7--7--7--
G|----8--8--8--8--8--8--8--8--7--7--7--7--7--7--7--7--
C|----8--8--8--8--8--8--8--8--7--7--7--7--7--7--7--7--

http://www.guitartabcreator.com
Guitar Tab Creator is intended to store guitar tab created through the tool. It currently does not support in-line text editing. Any text you place in here will be lost. If you need to comment on your tab, please use the "Tab Notes" section located below.