PAPER PLANTS - FIGHTING GRAVITY

01234567891011121314151617181920212223
E
B
G
D
A
E
B
0 1 2 3 4 5 6 7 8 9 10 11 12 13 14 15 16 17 18 19 20 21 22 23
(/) Slide Up  (\) Slide Down  (h) Hammer On  (p) Pull Off  (b) Bend (r) Release (v) Vibrato

Stave 1:

E|---------------------|---------------------|-
B|---------------------|---------------------|-
G|---------------------|---------------------|-
D|---6---6-----------9-|---6---6-----------6-|-
A|-----------9---7-----|-----------9---7-----|-
E|-0---0---0---0---0---|-0---0---0---0---0---|-

Stave 2:

E|---------------------|-----------------------|-
B|---------------------|-----------------------|-
G|-------------------4-|-----------------------|-
D|---6---6---4---2-----|---6---6---4---2---4h6-|-
A|-0---0---0---0---0---|-0---0---0---0---0-----|-
E|---------------------|-----------------------|-

Stave 3:

E|-----0---0-0---0-0-:|---------:|-
B|-----0---0-0---0-0-:|---------:|-
G|-----9---9-9---9-9-:|---------:|-
D|-----6---6-6---6-6-:|-6-7-7-6-:|-
A|-----7---7-7---7-7-:|-0-0-0-0-:|-
E|-0-0-0-0-0-0-0-0-0-:|---------:|-

Stave 4:

E|---:|---:|---:|---:|---:|---:|---:|-
B|---:|---:|---:|---:|---:|---:|---:|-
G|---:|---:|---:|---:|---:|---:|---:|-
D|-6-:|-2-:|---:|-4-:|-6-:|-4-:|-2-:|-
A|-4-:|-0-:|-2-:|-2-:|-4-:|-2-:|-0-:|-
E|---:|---:|-0-:|---:|---:|---:|---:|-

Stave 5:

E|---------------|---------------
B|---------------|---------------
G|---------------|---------------
D|-6-2---4-6-4-2-|---4-6-2-6-4-2-
A|-4-0-2-2-4-2-0-|-2-2-4-0-4-2-0-
E|-----0---------|-0-------------

							http://www.guitartabcreator.com
Chords

Tab Notes
Stave 3 is verse Stave 4 of the first chorus. Stave 5 is the full choruses. Strummed out. not individual hits on each note.
Instruments
{"strings":[[[".",".",".",".",".",".",".",".",".",".",null,null,null,null,null,"|",".",".",".",".",".",".",".",".",".",".",null,null,null,null,null,"|"],[".",".",".",".",".",".",".",".",".",".",null,null,null,null,"|",null,".",".",".",".",".",".",".",".",".",".",null,null,null,null,"|"],[".",".",".",".",".",".",".",".",".",".",null,null,null,"|",null,null,".",".",".",".",".",".",".",".",".",".",null,null,null,"|"],[".",6,".",6,".",".",".",".",".",9,null,null,"|",null,null,null,".",6,".",6,".",".",".",".",".",6,null,null,"|"],[".",".",".",".",".",9,".",7,".",".",null,"|",null,null,null,null,".",".",".",".",".",9,".",7,".",".",null,"|"],[0,".",0,".",0,".",0,".",0,".","|",null,null,null,null,null,0,".",0,".",0,".",0,".",0,".","|"]],[[".",".",".",".",".",".",".",".",".",".",null,null,null,null,null,"|",".",".",".",".",".",".",".",".",".",".",".",".",null,null,null,null,null,"|"],[".",".",".",".",".",".",".",".",".",".",null,null,null,null,"|",null,".",".",".",".",".",".",".",".",".",".",".",".",null,null,null,null,"|"],[".",".",".",".",".",".",".",".",".",4,null,null,null,"|",null,null,".",".",".",".",".",".",".",".",".",".",".",".",null,null,null,"|"],[".",6,".",6,".",4,".",2,".",".",null,null,"|",null,null,null,".",6,".",6,".",4,".",2,".",4,"h",6,null,null,"|"],[0,".",0,".",0,".",0,".",0,".",null,"|",null,null,null,null,0,".",0,".",0,".",0,".",0,".",".",".",null,"|"],[".",".",".",".",".",".",".",".",".",".","|",null,null,null,null,null,".",".",".",".",".",".",".",".",".",".",".",".","|"]],[[".",".",0,".",0,0,".",0,0,null,null,null,null,null,":|",".",".",".",".",":|"],[".",".",0,".",0,0,".",0,0,null,null,null,null,null,":|",".",".",".",".",":|"],[".",".",9,".",9,9,".",9,9,null,null,null,null,null,":|",".",".",".",".",":|"],[".",".",6,".",6,6,".",6,6,null,null,null,null,null,":|",6,7,7,6,":|"],[".",".",7,".",7,7,".",7,7,null,null,null,null,null,":|",0,0,0,0,":|"],[0,0,0,0,0,0,0,0,0,null,null,null,null,null,":|",".",".",".",".",":|"]],[[".",":|",".",":|",".",":|",".",":|",".",":|",".",":|",".",":|"],[".",":|",".",":|",".",":|",".",":|",".",":|",".",":|",".",":|"],[".",":|",".",":|",".",":|",".",":|",".",":|",".",":|",".",":|"],[6,":|",2,":|",".",":|",4,":|",6,":|",4,":|",2,":|"],[4,":|",0,":|",2,":|",2,":|",4,":|",2,":|",0,":|"],[".",":|",".",":|",0,":|",".",":|",".",":|",".",":|",".",":|"]],[[".",".",".",".",".",".",".",null,null,null,null,null,"|",".",".",".",".",".",".","."],[".",".",".",".",".",".",".",null,null,null,null,"|",null,".",".",".",".",".",".","."],[".",".",".",".",".",".",".",null,null,null,"|",null,null,".",".",".",".",".",".","."],[6,2,".",4,6,4,2,null,null,"|",null,null,null,".",4,6,2,6,4,2],[4,0,2,2,4,2,0,null,"|",null,null,null,null,2,2,4,0,4,2,0],[".",".",0,".",".",".",".","|",null,null,null,null,null,0,".",".",".",".",".","."]]],"numberofstrings":6,"notes":["E","B","G","D","A","E","B"],"capo":0,"stringnotes":["E4","B3","G3","D3","A2","E2"],"comments":["Stave 1:","Stave 2:","Stave 3:","Stave 4:","Stave 5:"],"timing":[["W","W","W","W","W","W","W","W","W","W",null,null,null,null,null,null,"W","W","W","W","W","W","W","W","W","W"],["W","W","W","W","W","W","W","W","W","W",null,null,null,null,null,null,"W","W","W","W","W","W","W","W","W","W",null,"W"],["W","W","W","W","W","W","W","W","W",null,null,null,null,null,null,"W","W","W","W"],["W",null,"W",null,"W",null,"W",null,"W",null,"W",null,"W"],["W","W","W","W","W","W","W",null,null,null,null,null,null,"W","W","W","W","W","W","W"]],"timingvisible":false,"tabcounter":19,"stave":4,"totalstaves":5,"instrument":"6guitar","selectedtuning":"6_standard","version":"13"}

Member for

1 month 2 weeks
Submitted by tyayers on Wed, 2021-10-06 10:35