Sound will begin in 5 seconds

Untitled + Solo

Chords
01234567891011121314151617181920212223
E
B
G
D
A
E
B
0 1 2 3 4 5 6 7 8 9 10 11 12 13 14 15 16 17 18 19 20 21 22 23
Song Science #1: How Pros Use 6 Chords to Write Hit Songs
(/) Slide Up  (\) Slide Down  (h) Hammer On  (p) Pull Off  (b) Bend (r) Release (v) Vibrato

Stave 1:

E|------------------3--3--5--5p3----------------|------------------3--3--5--5p3----------------
B|---------------3--3--3----------5p0-----5--5--|---------------3--3--3----------5p0-----5--5--
G|----------2h5------------------------5--5--5--|----------2h5------------------------5--5--5--
D|--2--2h5--------------------------------------|--2--2h5--------------------------------------
A|----------------------------------------------|----------------------------------------------
E|----------------------------------------------|----------------------------------------------

Stave 2:

E|-----------------------------------------------------------------------------------------------
B|-----------------------------------------------------------------------------------------------
G|--5--5/7--7/9--7--9--7--------------------------------------------7--9b11--9b11--12--9---------
D|------------------------10--7--7h10p7----------7--9/10--10--9--7------------------------9--10--
A|---------------------------------------10--10--------------------------------------------------
E|-----------------------------------------------------------------------------------------------

http://www.guitartabcreator.com
Guitar Tab Creator is intended to store guitar tab created through the tool. It currently does not support in-line text editing. Any text you place in here will be lost. If you need to comment on your tab, please use the "Tab Notes" section located below.