Sound will begin in 5 seconds

Ocean In The Way

Chords
01234567891011121314151617181920212223
E
B
G
D
A
E
B
0 1 2 3 4 5 6 7 8 9 10 11 12 13 14 15 16 17 18 19 20 21 22 23
Song Science #1: How Pros Use 6 Chords to Write Hit Songs
(/) Slide Up  (\) Slide Down  (h) Hammer On  (p) Pull Off  (b) Bend (r) Release (v) Vibrato

Stave 1:

E|-----------------------------------------------------------------------------------------------------------
B|-----------------------------------------------------------------------------------------------------------
G|-----------------------------------------------------------------------------------------------------------
D|-----------------------0--4--0-----------------------------------------------0--4--0-----------------------
A|--------0--4--0-----------------------0--4--0-----------------0--4--0-----------------------0--4--0--------
D|--0--4-----------0--4-----------0--4-----------0--4--0--0--4-----------0--4-----------0--4-----------0--4--

Stave 2:

E|-------------------------------------------------------------------------------------------------------
B|-------------------------------------------------------------------------------------------------------
G|-------------------------------------------------------------------------------------------------------
D|--0----------------------------------------------------------------------------------------------------
A|-----9--9--9--9--9--10--10--12--12--12--12--12--12--12--12--9--9--9--9--9--10--10--12--12--12--10--10--
D|-----0--0--0--0--0--0---0---0---0---0---0---0---0---0---0---0--0--0--0--0--0---0---0---0---0---0---0---

Stave 3:

E|------------------------------------------------------------------------------------------------------------
B|------------------------------------------------------------------------------------------------------------
G|------------------------------------------------------------------------------------------------------------
D|-----------------------5--------------------------------------------------5--5--7--7--7--7--7--7------------
A|--9--9--7--7--7--9--7--5--------------------------------------------------5--5--7--7--7--7--7--7--9--10--9--
D|--0--0--5--5--5--5--5--5--0--0--0--0--0--0--0--0--0--0--0--0--0--0--0--0--5--5--7--7--7--7--7--7--7--7---7--

Stave 4:

E|-----------------------------------------------------------------------------------------
B|-----------------------------------------------------------------------------------------
G|-----------------------------------------------------------------------------------------
D|--7--7--7--7--7--7------------7----------------------------------------------------------
A|--7--7--7--7--7--7--9--10--9--7----------------------------------------------------------
D|--7--7--7--7--7--7--7--7---7--7--0--0--0--0--12--12--12--12--11--11--11--11--7--7--7--7--

Stave 5:

E|----------------------------------------------------------------------------------------------------
B|----------------------------------------------------------------------------------------------------
G|----------------------------------------------------------------------------------------------------
D|----------------------------------------------------------------------------------------------------
A|----------------------------------------------------------------------7--7--7--7--9--9--9--9--7--7--
D|--0--0--0--0--12--12--12--12--11--11--11--11--7--7--7--7--5--5--5--5--5--5--5--5--5--5--5--5--5--5--

Stave 6:

E|------------------------------------------------------------------------------------------------
B|------------------------------------------------------------------------------------------------
G|------------------------------------------------------------------------------------------------
D|------------------------------------------------------------7--7--7--7--5--------0--0--0--0--0--
A|--7--7--------------7--7--7--7--9--9--9--9--10--10--10--10--7--7--7--7--5--7--9--0--0--0--0--0--
D|--5--5--5--5--5--5--5--5--5--5--5--5--5--5--5---5---5---5---7--7--7--7--5--5--5--0--0--0--0--0--

Stave 7:

E|-----------------------------------------------------------------------------------------------------
B|-----------------------------------------------------------------------------------------------------
G|-----------------------------7-----------------------------------------------------------------------
D|--7--7--7--7--7--7--5--------7--------------5--9--------------------5--9-----------------0--4--------
A|--7--7--7--7--7--7--5--7--9--5--------5--9--------5--9--------5--9--------0--------0--4--------0--4--
D|--7--7--7--7--7--7--5--5--5-----5--9--------------------5--9-----------------0--4--------------------

Stave 8:

E|-----------------------------------------------------------------------------------------------------
B|-----------------------------------------------------------------------------------------------------
G|-----------------------------------------------------------------------------------------------------
D|--------------0--4-----------------7--4--------------7--4--------------7--4--------------------------
A|--------0--4--------4--------5--7--------------5--7--------------5--7--------------------------------
D|--0--4-----------------0--0--------------0--0--------------0--0--------------0--0--0--0--0--0--0--0--

Stave 9:

E|------------------------------------------------------------------------------------------------
B|------------------------------------------------------------------------------------------------
G|------------------------------------------------------------------------------------------------
D|--------------7--4--------------7--4------------------------------------------------------------
A|--------5--7--------------5--7------------------------------------------------------------------
D|--5--5--------------5--5--------------0--0--0--0--12--12--12--12--11--11--11--11--14--14--7--7--

Stave 10:

E|------------------------------------------------------------------------------------------------
B|------------------------------------------------------------------------------------------------
G|------------------------------------------------------------------------------------------------
D|------------------------------------------------------------------------------------------------
A|------------------------------------------------------------------------7--7--7--7--9--9--9--9--
D|--0--0--0--0--12--12--12--12--11--11--11--11--14--14--7--7--5--5--5--5--5--5--5--5--5--5--5--5--

Stave 11:

E|------------------------------------------------------------------------------------------------------
B|------------------------------------------------------------------------------------------------------
G|------------------------------------------------------------------------------------------------------
D|------------------------------------------------------------------------------------------------------
A|--------------------------7--7--7--7--9--9--9--9--10--10--10--10--12--12--12--12--12--12--12--12--12--
D|--9--9--7--7--5--5--5--5--5--5--5--5--5--5--5--5--5---5---5---5---0-----------------------------------

Stave 12:

E|-------------------------------------------------------------------------------------------------
B|-------------------------------------------------------------------------------------------------
G|-------------------------------------------------------------------------------------------------
D|-------------------------------------------------------------------------------------------------
A|--------------17--17--17--16--16--16--14--16--14--12--10--12--10--9--10--9--7--9--7--5--7--5--0--
D|--12--12--12-------------------------------------------------------------------------------------

Stave 13:

E|-------------------------------------------------------------------------------------
B|-------------------------------------------------------------------------------------
G|-------------------------------------------------------------------------------------
D|----------------------------------------------------------------------------------5--
A|--17--17--17--16--16--16--14--16--14--12--10--12--10--9--10--9--7--9--7--5--7--5--5--
D|----------------------------------------------------------------------------------5--

http://www.guitartabcreator.com
Guitar Tab Creator is intended to store guitar tab created through the tool. It currently does not support in-line text editing. Any text you place in here will be lost. If you need to comment on your tab, please use the "Tab Notes" section located below.