Sound will begin in 5 seconds

UPON DESCEN Demi-god bass tab

01234567891011121314151617181920212223
E
B
G
D
A
E
B
0 1 2 3 4 5 6 7 8 9 10 11 12 13 14 15 16 17 18 19 20 21 22 23
Song Science #1: How Pros Use 6 Chords to Write Hit Songs
(/) Slide Up  (\) Slide Down  (h) Hammer On  (p) Pull Off  (b) Bend (r) Release (v) Vibrato

Stave 1:

D|--------------------------------------------------
A|--------------------------------------------------
F|--------------------------------------------------
C|--------------------------------------------------
G|--------------------------------------------------
C|--3--3--3--3--3--3--2--5--5--5--2--2--4--4--4--2--

Stave 2:

D|-------------------------------------------------------------------------------
A|-------------------------------------------------------------------------------
F|--------------------------------------------------------5h6--5-----------------
C|----------------------------------------------------------------8--6--8--3--5--
G|-------------------------------------------------------------------------------
C|--3--3--3--3--3--3--2--5--5--5--2--2--4--4--4--2--2--2-------------------------

Stave 3:

D|--------------------------------
A|--------------------------------
F|--------------------------------
C|--10h11--10---------------------
G|-------------13--11--13--8--10--
C|--------------------------------

Stave 4:

D|--------------------------------------
A|--------------------------------------
F|--------------------------------------
C|--------------------------------------
G|--------------------------------------
C|--2--2--2--2--2--2--2--2--2--3--2--3--

Stave 5:

D|--------------------------------
A|--------------------------------
F|--------------------------------
C|--------------------------------
G|--------------------------------
C|--2--2--2--2--2--2--6--3--5--2--

Stave 6:

D|--------------------------------
A|--------------------------------
F|--------------------------------
C|--8--6--5-----------------------
G|-----------8--6--5--------------
C|--------------------5--5--5--5--

Stave 7:

D|--------------------------------
A|--------------------------------
F|--------------------------------
C|--8--6--5-----------------------
G|-----------8--6--5--------------
C|--------------------6--6--6--6--

Stave 8:

D|--------------------------------------------------------
A|--------------------------------------------------------
F|--------------------------------------------------------
C|--8--6--5-----------------------------------------------
G|-----------8--6--5--------------------------------------
C|--------------------3--3--3--3--8--8--8--6--6--9--9--9--

Stave 9:

D|--------------------------------------------------------------------------
A|--------------------------------------------------------------------------
F|--------------------------------------------------------------------------
C|--------------------------------------------------------------------------
G|--------------------------------------------------------------------------
C|--3--3--3--3--3--3--3--3--3--3--3--3--3--3--3--3--3--3--3--3--3--3--3--3--

Stave 10:

D|--------------------------------------------------------------------------
A|--------------------------------------------------------------------------
F|--------------------------------------------------------------------------
C|--------------------------------------------------------------------------
G|--------------------------------------------------------------------------
C|--0--0--0--0--0--0--0--0--0--0--0--0--0--0--0--0--0--0--0--0--0--0--0--0--

Stave 11:

D|--------------------------------------------------------------------------
A|--------------------------------------------------------------------------
F|--------------------------------------------------------------------------
C|--------------------------------------------------------------------------
G|--------------------------------------------------------------------------
C|--7--7--7--7--7--7--7--7--7--7--7--7--7--7--7--7--7--7--7--7--7--7--7--7--

Stave 12:

D|-------------------------------------------------------------------------
A|-------------------------------------------------------------------------
F|-------------------------------------------------------------------------
C|-------------------------------------------------------------------------
G|-------------------------------------------------------------------------
C|--9--9--9--9--9--9--9--9--9--9--9--9--10--10--10--10--10--10--10--10--13\

Stave 13:

D|-----------------------------------------------------------------------------
A|-----------------------------------------------------------------------------
F|-----------------------------------------------------------------------------
C|-----------------------------------------------------------------------------
G|-----------------------------------------------------------------------------
C|--5--4--0--3--2--0--5--4--0--3--2--0--5--4--0--3--2--0--5--4--0--0--7--0--7--

http://www.guitartabcreator.com
Guitar Tab Creator is intended to store guitar tab created through the tool. It currently does not support in-line text editing. Any text you place in here will be lost. If you need to comment on your tab, please use the "Tab Notes" section located below.