Sound will begin in 5 seconds

The Injustice!

01234567891011121314151617181920212223
E
B
G
D
A
E
B
0 1 2 3 4 5 6 7 8 9 10 11 12 13 14 15 16 17 18 19 20 21 22 23
Song Science #1: How Pros Use 6 Chords to Write Hit Songs
(/) Slide Up  (\) Slide Down  (h) Hammer On  (p) Pull Off  (b) Bend (r) Release (v) Vibrato

Stave 1:

E|--------------------------------------------------------------------
B|--------------------------------------------------------------------
G|--------8-----7--------10-----8-------------------------------------
D|--------------------------------------------------------------------
A|-----6-----5--------8------6-------------------------1-----1-----1--
E|--0--------------0---------------0--9\0--0--0--0--1-----1-----1-----

Stave 2:

E|-----------------------------------------------------12-----
B|---------------------------------------------------------15b
G|--------8-----7--------10-----8-----------------------------
D|------------------------------------------------------------
A|-----6-----5--------8------6--------------------------------
E|--0--------------0---------------0--1/6--6--6--6--6---------

Stave 3:

E|----------------------------------------------------------------------------------------------------
B|----------------------------------------------------------------------------------------------------
G|--------------8--------7---------------10--------8--------------8--------7--------------5--------7--
D|-----------8--------7--------------10---------8--------------8--------7--------------5--------7-----
A|--------6--------5--------------8----------6--------------6--------5--------------3--------5--------
E|--0--0--------------------0--0----------------------0--0--------------------0--0--------------------

Stave 4:

E|--------------------------
B|--------------------------
G|--------------------------
D|--------------------------
A|--------------------------
E|--4--2--1--0--4--2--1--0--

Stave 5:

E|----------------------------------------------------------------------
B|----------------------------------------------------------------------
G|--------------8--------7---------------10--------8--------5--------7--
D|-----------8--------7--------------10---------8--------5--------7-----
A|--------6--------5--------------8----------6--------3--------5--------
E|--0--0--------------------0--0----------------------------------------

Stave 6:

E|---------------------------------------
B|---------------------------------------
G|--------------------------10--8--8--7--
D|-----------------------7---------------
A|-----------7--7--7--5------------------
E|--3--3--3------------------------------

Stave 7:

E|------------------------------------------------------------------
B|------------------------------------------------------------------
G|-----------8-----7-----------10-----8-----------5-----7-----------
D|------------------------------------------------------------------
A|--------6-----5-----------8------6-----------3-----5--------------
E|--0--0--------------0--0---------------0--0-----------------0--0--

Stave 8:

E|-----------------------------------
B|-----------------------------------
G|--------------8-----7-----------8--
D|-----------------------------------
A|-----------6-----5-----------8-----
E|--0--0--0--------------0--0--------

Stave 9:

E|---------------------------------
B|---------------------------------
G|--------------------10--8--8--7--
D|---------------------------------
A|-----------7--7--5---------------
E|--3--3--3------------------------

Stave 10:

E|--------------------------------------------------------------------------
B|--------------------------------------------------------------------------
G|--------------------------------------------------------------------------
D|--------------------------------------------------------------------------
A|-----3-----3-----3-----2-----5-----3-----3-----2-----5-----3-----6-----2--
E|--3-----3-----3-----2-----5-----3-----3-----2-----5-----3-----6-----2-----

Stave 11:

E|--------------------------------------------------------------------------------
B|--------------------------------------------------------------------------------
G|-----8-----------------------7-----------------------------8--------------------
D|--------------------------------------------------------------------------------
A|--6-----------------------5-----------------5--------6--6-----------------------
E|--------0--0--0--4--3--1--------0--0--0--5-----0--6-----------0--0--0--4--3--1--

Stave 12:

E|--------------------------------------------------------------
B|--------------------------------------------------------------
G|--------------------7--------------------8--------5--------7--
D|-----------------7--------------------8--------5--------7-----
A|--------------5--------------------6--------3--------5--------
E|--0--0--0--0-----------0--0--0--0-----------------------------

Stave 13:

E|----------------------------------------------------------------
B|----------------------------------------------------------------
G|-----7-----7-----7-----7-----10-----10-----5-----5-----5-----7--
D|----------------------------------------------------------------
A|--5-----5-----5-----5-----8------8------3-----3-----3-----5-----
E|----------------------------------------------------------------

Stave 14:

E|------------------------------------------
B|------------------------------------------
G|------------------------------------------
D|------------------------------------------
A|------------------------------------------
E|--0--0--0--0--1--0--1--3--12--12--12--12--

Stave 15:

E|----------------------------------------------------------
B|----------------------------------------------------------
G|--------------------8-----6------15-----------------------
D|----------------------------------------------------------
A|-----------------6-----4-----13---------------------------
E|--0--0--3--0--0----------------------0--0--0--0--4--1--0--

Stave 16:

E|--
B|--
G|--
D|--
A|--
E|--

http://www.guitartabcreator.com
Guitar Tab Creator is intended to store guitar tab created through the tool. It currently does not support in-line text editing. Any text you place in here will be lost. If you need to comment on your tab, please use the "Tab Notes" section located below.