Sound will begin in 5 seconds

Jimi Hendrix Red House

01234567891011121314151617181920212223
E
B
G
D
A
E
B
0 1 2 3 4 5 6 7 8 9 10 11 12 13 14 15 16 17 18 19 20 21 22 23
Song Science #1: How Pros Use 6 Chords to Write Hit Songs
(/) Slide Up  (\) Slide Down  (h) Hammer On  (p) Pull Off  (b) Bend (r) Release (v) Vibrato

Stave 1:

G|--------------|--------------|-----------|-----------|--
D|--------------|--------------|-----------|-----------|--
A|--------------|--------------|-----------|--------5--|--
E|--7--7--7--7--|--7--7--7--7--|--7--------|-----------|--

Stave 2:

G|--------------------7-----7--9--|--------------------7--------|-----------------------------|--
D|--------6--6--9--9-----9--------|--------6--6--9--9-----9--6--|--------------------7--9--7--|--
A|--7--7--------------------------|--7--7-----------------------|--------6--6--9--9-----------|--
E|--------------------------------|-----------------------------|--7--7-----------------------|--

Stave 3:

G|--------------------------|--------------------------------|-----------------------------|--
D|--------------------7--7--|--------------------------------|-----------------------------|--
A|--------6--6--9--9--------|--9--9--9-----7--9--9--9-----8--|--7--7--7--7--7--5--5--4--4--|--
E|--7--7--------------------|-----------9--------------9-----|-----------------------------|--

Stave 4:

G|-----------------------------|--------------------------|--------------------------------|--
D|--------------------7--9--7--|--------------------------|--------------------7-----7--9--|--
A|--------6--6--9--9-----------|--------6--7--8--9--9--9--|--------6--6--9--9-----9--------|--
E|--7--7-----------------------|--7--7--------------------|--7--7--------------------------|--

Stave 5:

G|--------------------9--7-----|--------------------------------|--------------------------------|--
D|--------6--6--9--9--------9--|--------------------7-----7--9--|-----7--9--7-----7--9-----7--9--|--
A|--7--7-----------------------|--------6--6--9--9-----9--------|--------------------------------|--
E|-----------------------------|--7--7--------------------------|--7-----------------------------|--

Stave 6:

G|--------7--8--9--------9--7-----|--------7--8--9--------------|-----------------------------|--
D|--------------------------------|-----------------------------|-----------------------------|--
A|--7--7-----------7--7--------6--|--7--7-----------7--7--6--6--|--------------------6--7--9--|--
E|--------------------------------|-----------------------------|--7--7--7--7--7--7-----------|--

Stave 7:

G|--------------------------------|--------9--10--11-----------------|--------------------------|--
D|-----------------9-----9--9--9--|----------------------------------|--------------------------|--
A|--------6--7--9-----------------|--9--9-------------9--9--9--9--8--|--7--7--7--7--5--5--5--4--|--
E|--7--7--------------------------|----------------------------------|--------------------------|--

Stave 8:

G|--------9--10--11-----------------|--------------------------|-----------------------------|--
D|----------------------------------|--------------------------|--------------------7--8--9--|--
A|--9--9-------------9--9--9--9--8--|--7--7--7--7--5--5--5--4--|--------6--6--9--9-----------|--
E|----------------------------------|--------------------------|--7--7-----------------------|--

Stave 9:

G|--------------------------|--------------------------|--------------------------|--
D|--9--9--7--7--------------|--------------------------|--------6--6--9--9--9--7--|--
A|--------------9--9--9--9--|--------------------6--9--|--7--7--------------------|--
E|--------------------------|--7--7--7--7--7--7--------|--------------------------|--

Stave 10:

G|-----------------------------|--------------------------------|--
D|--------7--8--9--------9--9--|--------7--8--9-----------------|--
A|-----------------------------|--------------------------6--9--|--
E|--7--7-----------7--7--------|--7--7-----------7--7--7--------|--

Stave 11:

G|--------------------7-----7--9--|--------------------7--------|--
D|--------6--6--9--9-----9--------|--------6--6--9--9-----9--7--|--
A|--7--7--------------------------|--7--7-----------------------|--
E|--------------------------------|-----------------------------|--

Stave 12:

G|--------------------7--------|--------------------------------|--------------------------|--
D|--------6--6--9--9-----9--7--|--------------------7--7--7--7--|--------------------7--7--|--
A|--7--7-----------------------|--------6--6--9--9--------------|--------6--6--9--9--------|--
E|-----------------------------|--7--7--------------------------|--7--7--------------------|--

Stave 13:

G|--------------------------------|--------------9--9--11--11--|--
D|--------------------------------|----------------------------|--
A|--9--9--9-----7--9--9--9-----8--|--7--7--7--7----------------|--
E|-----------9--------------9-----|----------------------------|--

Stave 14:

G|--------------------------|-----------------------------|--
D|--------------------7--7--|-----------------------------|--
A|--------6--6--9--9--------|--------6--7--8--9--9--9-----|--
E|--7--7--------------------|--7--7--------------------6--|--

http://www.guitartabcreator.com
Guitar Tab Creator is intended to store guitar tab created through the tool. It currently does not support in-line text editing. Any text you place in here will be lost. If you need to comment on your tab, please use the "Tab Notes" section located below.