Sound will begin in 5 seconds

Do I Do

01234567891011121314151617181920212223
E
B
G
D
A
E
B
0 1 2 3 4 5 6 7 8 9 10 11 12 13 14 15 16 17 18 19 20 21 22 23
Song Science #1: How Pros Use 6 Chords to Write Hit Songs
(/) Slide Up  (\) Slide Down  (h) Hammer On  (p) Pull Off  (b) Bend (r) Release (v) Vibrato

Stave 1:

G|--------------------------------------------------------
D|--------------------------------------------------4--3--
A|--2--2--2--------2--2--------2--2--2--------2--2--------
E|-----------4--2--------2--4-----------4--2--------------

Stave 2:

G|--------------------------------------------------------
D|--2--2--2--------2--2--3--4--4--4-----------------------
A|-----------4--2--------------------4--------------------
E|--------------------------------------2--2--2--2--2--4--

Stave 3:

G|-----------8--6--------6--------------------------------------
D|-----------------8--6-----8--6-----6--------------------------
A|--------6-----------------------9-----9--6--2--3--4--6--------
E|--4--4--------------------------------------------------4--4--

Stave 4:

G|--------
D|--4-----
A|--------
E|-----2--

Stave 5:

G|-----11--
D|--4------
A|---------
E|---------

Stave 6:

G|--------------------------------------------------
D|--------------------------------------------3--3--
A|--2--2--2--------2--2--------2--2--2--------------
E|-----------4--2--------2--4-----------4--2--------

Stave 7:

G|-----------------------------------------------------
D|--2--2--2--------2--2--3--4--4--4--------------------
A|-----------4--2--------------------4-----------3--3--
E|--------------------------------------2--2--2--------

Stave 8:

G|-----------------------6p5-----------------------
D|--------6-----8--6----------8p6--6p5-------------
A|-----6-----6--------8-----------------8p6--4-----
E|--4-------------------------------------------4--

Stave 9:

G|--------------------------------------------------
D|--------8-----10--8------------8------------------
A|-----8-----8---------8--8--10-----10--8--6--------
E|--6-----------------------------------------8--6--

Stave 10:

G|-----------------------------12--11--9------------------------
D|---------10------12--10-----------------12--10--8-------------
A|-----10------10----------10------------------------12--10--9--
E|--8-----------------------------------------------------------

http://www.guitartabcreator.com
Guitar Tab Creator is intended to store guitar tab created through the tool. It currently does not support in-line text editing. Any text you place in here will be lost. If you need to comment on your tab, please use the "Tab Notes" section located below.