Sound will begin in 5 seconds

Walk Like a Giant

Chords
01234567891011121314151617181920212223
E
B
G
D
A
E
B
0 1 2 3 4 5 6 7 8 9 10 11 12 13 14 15 16 17 18 19 20 21 22 23
Song Science #1: How Pros Use 6 Chords to Write Hit Songs
(/) Slide Up  (\) Slide Down  (h) Hammer On  (p) Pull Off  (b) Bend (r) Release (v) Vibrato

Stave 1:

E|-----------------------------------------------------------------------|---------------------
B|--8/10--10v--8--8h10--8------------------------------------------------|---------------------
G|-------------------------9--9\7/9v--7\5/7/9----------------------------|---------------------
D|---------------------------------------------7v--7/10--9--7------------|--0--2--2/3\2--------
A|-------------------------------------------------------------3v--5/7v--|---------------3--0--
E|-----------------------------------------------------------------------|---------------------

Stave 2:

E|--0---------------------------------------------------------------------------------
B|--3---------------------------------------------------------------------------------
G|--2---------------------0--2p0--2v--------------------------------------------------
D|--0--2--2v--0--2--2h3v--------------2--2v--0-----0h2v--------0h2-----2--2-----3--3--
A|----------------------------------------------3-----------3-------0--0--0--0--3--3--
E|------------------------------------------------------------------------------1--1--

Stave 3:

E|-----
B|--5--
G|--5--
D|-----
A|-----
E|-----

http://www.guitartabcreator.com
Guitar Tab Creator is intended to store guitar tab created through the tool. It currently does not support in-line text editing. Any text you place in here will be lost. If you need to comment on your tab, please use the "Tab Notes" section located below.