Sound will begin in 5 seconds

She's Always Dancing

Chords
01234567891011121314151617181920212223
E
B
G
D
A
E
B
0 1 2 3 4 5 6 7 8 9 10 11 12 13 14 15 16 17 18 19 20 21 22 23
Song Science #1: How Pros Use 6 Chords to Write Hit Songs
(/) Slide Up  (\) Slide Down  (h) Hammer On  (p) Pull Off  (b) Bend (r) Release (v) Vibrato

Stave 1:

E|--------------------
B|-8/10\8v-6p5h6-8----
G|-----------------7v-
D|--------------------
A|--------------------
E|--------------------

Stave 2:

E|-------------------------------------
B|-------------------------------------
G|-------------------------------------
D|-----------8-8-7---5v-5--------------
A|-5-7-8-7-5-------8------8-7-5-5-7-5v-
E|-------------------------------------

Stave 3:

E|--------------------------------------
B|--------------------------------------
G|---5-5h7-7-5v-------------------------
D|-7------------7-5-8v-8-7---5---5-7----
A|-------------------------8---8-----5v-
E|--------------------------------------

Stave 4:

E|-----------------------------------
B|-6-5-----5/6/8-----6/8v------------
G|-----7-7-------7-7------5-5-7/9\7v-
D|-----------------------------------
A|-----------------------------------
E|-----------------------------------

Stave 5:

E|------------------------------------------0-------
B|---------------------------8v-----------6---6-5---
G|-----------5-7-7-5h7-7\5-5----7-5-----7---------7-
D|-------5-7------------------------8-7-------------
A|-5/7-7--------------------------------------------
E|--------------------------------------------------

Stave 6:

E|-5--5-0-5-6-6-6-6-------8--8--8--8--13-13-13-13-13h15-17-17-17-17-17h18-17------------
B|-6--6-6-6-6-6-6-------6-8--8--8--8--15-15-15----------18-18-18-------------15v----15v-
G|-7--7-7-7-7-7-7---7-----9--9--9--9--15-15-15----------19------------------------------
D|-0v-0-------8-8-----8---10-10-10-10---------------------------------------------------
A|--------------------------------------------------------------------------------------
E|--------------------------------------------------------------------------------------

Stave 7:

E|-13h15v-15\13-13\12-12-12-----------------
B|--------------------------15-13-15/17-----
G|--------------------------------------12v-
D|------------------------------------------
A|------------------------------------------
E|------------------------------------------

http://www.guitartabcreator.com
Guitar Tab Creator is intended to store guitar tab created through the tool. It currently does not support in-line text editing. Any text you place in here will be lost. If you need to comment on your tab, please use the "Tab Notes" section located below.