Sound will begin in 5 seconds

Testing it out

Chords
01234567891011121314151617181920212223
E
B
G
D
A
E
B
0 1 2 3 4 5 6 7 8 9 10 11 12 13 14 15 16 17 18 19 20 21 22 23
Song Science #1: How Pros Use 6 Chords to Write Hit Songs
(/) Slide Up  (\) Slide Down  (h) Hammer On  (p) Pull Off  (b) Bend (r) Release (v) Vibrato

Stave 1:

E|-------------------------------------------------------------------------------------
B|--3h6p3--1---------------------------------------------------------------------------
G|------------2h5p2--0-------2h4-------------------------------------------------------
D|----------------------0h3-------3p0--3--2-----0h3p0----------------------------5-----
A|-----------------------------------------------------3--0h3p0-------------0h2--------
D|--0------2--3------5--0-----------------------0---------0------5-----0h3----------3--

Stave 2:

E|--5h8p5------------------------------------------------------------------------------------
B|---------8p5-------------------------------------------------------------------------------
G|--------------5/7--7--7h9--10--9--5--2/7--7--7h9--10--9-----2/7--7--7h9--10--9h10p9--7--5--
D|----------------0--7-------------------0--7-------------------0--7-------------------------
A|----------------0--0-------------------0--0-------------------0--0-------------------------
D|----------------0--0-------------------0--0-------------------0--0-------------------------

Stave 3:

E|--0-------------0----------------------------------------------------------------------
B|---------3--------------------------------------------------3--3--3h5h6--5h6h8--6p5\3--
G|--2h5p2--0h5p0--2/7--7h9--10--9--5--2/7--7--7h9--10--12--2--2--2-----------------------
D|------------------0--7----------------0--7------------------0--0-----------------------
A|--0------0------0-0--0----------------0--0------------------0--0-----------------------
D|------------------0--0----------------0--0------------------0--0-----------------------

Stave 4:

E|--5h8p5--3-----3--5h8p5--3-----3--5h8p5--3h5p3------------
B|------------3---------------3-------------------5p3-------
G|-----------------------------------------------------5/7--
D|----------------------------------------------------------
A|----------------------------------------------------------
D|----------------------------------------------------------

http://www.guitartabcreator.com
Guitar Tab Creator is intended to store guitar tab created through the tool. It currently does not support in-line text editing. Any text you place in here will be lost. If you need to comment on your tab, please use the "Tab Notes" section located below.