Sound will begin in 5 seconds

Heaven in this Hell - Orianthi

Chords
01234567891011121314151617181920212223
E
B
G
D
A
E
B
0 1 2 3 4 5 6 7 8 9 10 11 12 13 14 15 16 17 18 19 20 21 22 23
Song Science #1: How Pros Use 6 Chords to Write Hit Songs
(/) Slide Up  (\) Slide Down  (h) Hammer On  (p) Pull Off  (b) Bend (r) Release (v) Vibrato

Stave 1:

E |----------------------------------------------------
B |----------------------------------------------------
G |--8--8--8p6-----------------------------------------
D |-------------8--8--8p6--4--6--6--6p4--8--6--6\4-----
A |-------------------------------------------------6--
Eb|----------------------------------------------------

Stave 2:

E |----------------------------------------------------
B |----------------------------------------------------
G |----------------------------------------------------
D |----------------------------------------------------
A |--6--6--6p4-----------------------------------------
Eb|-------------7--7--7p5--3--5--5--5p3--7--5--5\3--0--

Stave 3:

E |-------------------------------------------
B |-------------------------------------------
G |-------------------------------------------
D |-------------1-----4p1----------4-----8p6--
A |--1--1--1h4-----4----------4h6-----6-------
Eb|--0--0-------------------------------------

http://www.guitartabcreator.com
Guitar Tab Creator is intended to store guitar tab created through the tool. It currently does not support in-line text editing. Any text you place in here will be lost. If you need to comment on your tab, please use the "Tab Notes" section located below.