Sound will begin in 5 seconds

vincent - don mclean

Chords
01234567891011121314151617181920212223
E
B
G
D
A
E
B
0 1 2 3 4 5 6 7 8 9 10 11 12 13 14 15 16 17 18 19 20 21 22 23
(/) Slide Up  (\) Slide Down  (h) Hammer On  (p) Pull Off  (b) Bend (r) Release (v) Vibrato

verse

E|---------------------3-----------3-----------0-----------------------0-----------------
B|------------0-----------1-----------0-----------3-----1-----------0--------0--------0--
G|-------0h2--------0-----------0-----------0--------------0-----2-----------------2-----
D|--0h2----------0-----------0-----------0-----------0--------------------------2--------
A|------------------------------------------------------------0--------------0-----------
E|------------3-----------3-----------3-----------3--------------------------------------



E|-------------0-----------------------0-----------------------0--2-----------3---------------------
B|--0h1-----------0-----1-----------------0--------0--------1-----------1-----------0---------------
G|----------2--------------0--------0-----------0--------2-----------2-----2-----------0-------0h2--
D|-------2-----------2-----------2-----------2--------0-----------0--------------0--------0h2-------
A|--0-------------0-----------3-----------3---------------------------------------------------------
E|--------------------------------------------------------------------------------------------------

on the end of the second verse, play this instead of the last G chord

E|--3----------------------
B|--------0-----1-3--1--0--
G|-----------0-------------
D|-----0--------2-4--2-----
A|-------------------------
E|-------------------------

chorus

E|-----------3-------------------------------------0--2-----------2-----3/5--
B|--------------0--1--3--0-----------0--0h1-----3-----------1----------------
G|--0-----------------------2-----2----------------------2-----2-----2-------
D|--------0--------------------2-------------2--------0-----------0----------
A|--------------------------0-----------0------------------------------------
E|-----3---------------------------------------------------------------------



E|-----------------------------------0-------------------------------------------------2--------------0--
B|-----------0-----------0--------------3-----3-----1--------1--0-----0h1-----------1-----------1-----0--
G|--------0-----------0-----------0--------------0--------2----------------2-----2-----------2-----2--0--
D|-----0-----------0-----------2-----------2-----------2-----------2----------0-----------0-----------2--
A|--------------------------------------------------0-----------0-------------------------------------2--
E|--3-----------2-----------0-------------------------------------------------------------------------0--



E|--------------0--------------------------------2--3-----------2-----0-----------0---------------
B|--------------------2-----1--------1--------1-----------0-----------------3--------3------------
G|--------0--------------0--------0--------2-----------------0-----------0-----0-------------0h2--
D|-----2-----2-----2-----------2--------0--------------0-----------0--------------------0h2-------
A|--0-----------0-----------0---------------------------------------------------------------------
E|--------------------------------------------------3-----------3-----------3---------------------

http://www.guitartabcreator.com
Guitar Tab Creator is intended to store guitar tab created through the tool. It currently does not support in-line text editing. Any text you place in here will be lost. If you need to comment on your tab, please use the "Tab Notes" section located below.