Sound will begin in 5 seconds

Love Yourself Uke

Chords
01234567891011121314151617181920212223
E
B
G
D
A
E
B
0 1 2 3 4 5 6 7 8 9 10 11 12 13 14 15 16 17 18 19 20 21 22 23
Song Science #1: How Pros Use 6 Chords to Write Hit Songs
(/) Slide Up  (\) Slide Down  (h) Hammer On  (p) Pull Off  (b) Bend (r) Release (v) Vibrato

Stave 1:

A|--------0--2--2-----0--0-----2--------2--3--3--2--0-----0--2--0--
E|-----3-----3-----3--2-----2--3-----3-----0-----------3-----3--2--
C|--2--------2--------2--------4--4--------0-----------------2--2--
G|-----------------------------------------------------------------

Stave 2:

A|--------------------0h2--5p2--5--5--5--3--2--0--2--3--------2--------2--------2--------2--
E|-----------------3---------------------------------------3--------5--------3--------5-----
C|--2--2--2--2--2---------------------------------------4--------4--------4--------4--------
G|------------------------------------------------------------------------------------------

Stave 3:

A|--------------2-----------------------------------2--------------------2-----------2--2--2-----5--------5--5--5--3--2--0--------0--2--------2--
E|-----------3--3--3-----5--5--5p3p2p0-----------3--3--3-----5--5--5--3-----------3--3--3-----3--3-----3-----------------------3-----3-----3-----
C|--2--2--2-----4-----4-----------------2--2--2-----4-----4-----------------2--2-----2--2--------2--2-----------------------2--------2--2--------
G|-----------------------------------------------------------------------------------------------------------------------------------------------

Stave 4:

A|--------0--2--2--0-----2--2--3--------0--2--2--2--2--0--0--2--
E|-----3-----3--3--2-----3--3--0-----0-----3--3--3--3--2--2--3--
C|--2--------2--2--2--2--4--4--0--0--------2--2--2--2--2--2--2--
G|--------------------------------------------------------------

Stave 5:

A|--5--2--5--2-----------5--2--5--2-----------5--2--5--2-----------------------
E|--------------5--3--3--------------5--3--7--------------5--3--8--7--5--3--3--
C|-----------------------------------------------------------------------------
G|-----------------------------------------------------------------------------

http://www.guitartabcreator.com
Guitar Tab Creator is intended to store guitar tab created through the tool. It currently does not support in-line text editing. Any text you place in here will be lost. If you need to comment on your tab, please use the "Tab Notes" section located below.