Sound will begin in 5 seconds

Easy Rain

Chords
01234567891011121314151617181920212223
E
B
G
D
A
E
B
0 1 2 3 4 5 6 7 8 9 10 11 12 13 14 15 16 17 18 19 20 21 22 23
Song Science #1: How Pros Use 6 Chords to Write Hit Songs
(/) Slide Up  (\) Slide Down  (h) Hammer On  (p) Pull Off  (b) Bend (r) Release (v) Vibrato

Stave 1:

E|----12--x---12-----------7---0---7------------0--0--0-----------0--0--x------------x--x--x-----------0--0--
B|----12--14--12-----------0---8---0------------5--0--5-----------0--3--5------------5--5--5-----------5--0--
G|----12--12--12-----------9---9---9------------5--5--5-----------0--0--4------------5--7--9-----------5--5--
D|----12--12--12-----------9---9---9------------7--7--7-----------2--2--2------------6--6--6-----------7--7--
A|----x---0---0------------10--10--10-----------7--7--7-----------2--2--2------------7--7--7-----------7--7--
E|----x---0---0---0--3--5--0---0---0---0--3--5--0--0--0--0--3--0--0--0--0--0--3h5h7--x--0--0--0--5--3--0--0--

Stave 2:

E|--0---------------0--0--x-----------0--0--0------------0--0--x--
B|--5---------------0--3--5-----------0--3--0------------0--3--5--
G|--5---------------0--0--4-----------4--4--4------------0--0--4--
D|--7---------------2--2--2-----------4--4--4------------2--2--2--
A|--7---------------2--2--2-----------2--2--2------------2--2--2--
E|--0--0--3b3r3--0--0--0--0--0--5--7--0--0--0--0--3v--0--0--0--0--

http://www.guitartabcreator.com
Guitar Tab Creator is intended to store guitar tab created through the tool. It currently does not support in-line text editing. Any text you place in here will be lost. If you need to comment on your tab, please use the "Tab Notes" section located below.