Land Of Sighs By Lethean

Chords

01234567891011121314151617181920212223
E
B
G
D
A
E
B
0 1 2 3 4 5 6 7 8 9 10 11 12 13 14 15 16 17 18 19 20 21 22 23
(/) Slide Up  (\) Slide Down  (h) Hammer On  (p) Pull Off  (b) Bend (r) Release (v) Vibrato

Intro Lead Repeat 2x

D|--------------------------------------------------
A|----------12-----11-------------12-----13--11-----
F|--2/9-------------------2/9-----------------------
C|--------------------------------------------------
G|--------------------------------------------------
D|--------------------------------------------------

Intro Rhythm Repeat 2x

D|--------------------------------------
A|--------------------------------------
F|--------------------------------------
C|--------4-----3-----------4-----5--3--
G|--2-----2-----1-----2-----2-----3--1--
D|--0-----------------0-----------------

Main Riff (Played in Swing)

D|--------------------------------------------------------------0--------0--
A|-----------------------------------------------------------0--------0-----
F|--------------------------------------------------------4--------3--------
C|--------------------------------------------------------------------------
G|--2-----------------------2--------2-----2--------------------------------
D|--0-----0--0--0--0--1--4-----4--1--0-----0-----0--0--0--------------------



D|----------------------------------------------------------------------------
A|----------------------------------------------------------------------------
F|----------------------------------------------------------------------------
C|-----------------------------------3-----3----------------------------------
G|--2-----------------------2--1--0--1-----1-----1--1--1-----1p0--------------
D|--0-----0--0--0--0--1--4----------------------------------------0--3--1--0--



D|--------------------------------------------------------------0--------0--
A|-----------------------------------------------------------0--------0-----
F|--------------------------------------------------------4--------3--------
C|--------------------------------------------------------------------------
G|--2-----------------------2--------2-----2--------------------------------
D|--0-----0--0--0--0--1--4-----4--1--0-----0-----0--0--0--------------------



D|--------------------------------------------------------------------------------------------------
A|--------------------------------------------------------------------------------------------------
F|--------------------------------------------------------------------------------------------------
C|-----------------------------------3-----3-----3--3--3-----3--3-----3--3--3-----------------------
G|--2-----------------------2--1--0--1-----1-----1--1--1-----1--1-----1--1--1--------------2--------
D|--0-----0--0--0--0--1--4--------------------------------------------------------0--1--4-----4--1--

Verse 1 Repeat 2x

D|------------------------------------------------------------------------------------------------------
A|------------------------------------------------------------------------------------------------------
F|---------------------------------------------------------------------------------------------0--------
C|-----------4-5-----3-----4-----------------------------------------4----------------------4-----4-----
G|--2--------2-3-----1-----2-----------------------------5--------5--2-------2--------------------------
D|--0-----0-------0-----0-----0--0--0-----0--0--0--0-----3--0--0--3-----2b---0--------0--2-----------2--

Alt Verse 1

D|----------------------------------------------------------------------------------------------
A|----------------------------------------------------------------------------------------------
F|----------------------------------------------------------------------------------------------
C|--------------------------5--5--5--5--5--5--5--5--2--2--2--2--2--2--2--2--1--1--1-------------
G|--2-----2--2--2--2--2--2--6--6--6--6--6--6--6--6--3--3--3--3--3--3--3--3--2--2--2-----2-------
D|--0-----0--0--0--0--0--0--6--6--6--6--6--6--6--6--3--3--3--3--3--3--3--3--2--2--2--3-----2b---



D|----------------------------------------------------------------------------------------------
A|----------------------------------------------------------------------------------------------
F|--9--9--9--9--9--9--9--9--8--8--8--8--8--8--8--8--5--5--5--5--5--5--5--5--4--4--4-------------
C|----------------------------------------------------------------------------------------------
G|--7--7--7--7--7--7--7--7--6--6--6--6--6--6--6--6--3--3--3--3--3--3--3--3--2--2--2-----2-------
D|-----------------------------------------------------------------------------------3-----2b---

Pre-Chorus 1

D|-----------------------------------------------------------------------------------------------------------------------------------
A|-----------------------------------------------------------------------------------------------------------------------------------
F|-----------------------------------------------------------------------------------------------------------------------------------
C|--------------------4--4-----------------------------------------------------------------9--9--------------------------------------
G|--2-----x--5--5--x--2--1--------------------------------------------2-----x--5--5-----x--6--7--------------------------------------
D|--0-----x--3--2--x--------0--0--0-----0--0--0-----0--0--0-----0--0--0-----x--3--2-----x--------0--0--0-----0--0--0-----0--0--0-----



D|-----------------------------------------------------------------------------------------12--12--12--12--12--12-----
A|-----------------------------------------------------------------------------------------12--12--12--12--12--12-----
F|-----------------------------------------------------------------------------------------12--12--12--12--12--12-----
C|--------------------4--4--------------------------------------------------------9--9-----9---9---9---9---9---9------
G|--2-----x--5--5--x--2--1--------------------------------------------2-----------6--7-----7---7---7---7---7---7------
D|--0-----x--3--2--x--------0--0--0-----0--0--0-----0--0--0-----0--0--0-----3--2--------------------------------------

Chorus Lead 1 Repeat 2x

D|----------------------------------------------------------7-----------7-----------7-----------7--------------
A|----------------13--12--11--12-------------------------------8-----8-----8-----8-----8-----8-----8-----------
F|--9-----11--12------------------------9-----12--11-----8--------9-----------9-----------9-----------9--8-----
C|-------------------------------------------------------------------------------------------------------------
G|-------------------------------------------------------------------------------------------------------------
D|-------------------------------------------------------------------------------------------------------------

Chorus Rhythm 1 Repeat 2x

D|--------------------------------------------------------------------------------------------
A|--------------------------------------------------------------------------------------------
F|--------------------------------------------------------------------------------------------
C|--------------5--4-----3--4--------------------5--------------------------------------------
G|--2-----------3--2-----1--2-----2-----5--4-----6--2-----2--2-----2--2-----2--2-----2--2-----
D|--0-----2--3--3--2-----1--------0-----3--2-----6--0-----0--0-----0--0-----0--0-----0--0-----

Repeat main riff | Verse 

D|--
A|--
F|--
C|--
G|--
D|--

Alt Verse 2

D|----------------------------------------------------------------------------------------------
A|----------------------------------------------------------------------------------------------
F|----------------------------------------------------------------------------------------------
C|--------------------------5--5--5--5--5--5--5--5--2--2--2--2--2--2--2--2--1--1--1-------------
G|--2--2--2--2--2--2--2--2--6--6--6--6--6--6--6--6--3--3--3--3--3--3--3--3--2--2--2-----2-------
D|--0--0--0--0--0--0--0--0--6--6--6--6--6--6--6--6--3--3--3--3--3--3--3--3--2--2--2--3-----2b---



D|---------------------------------------------------------------------------------------------------------
A|---------------------------------------------------------------------------------------------------------
F|---------------------------------------------------------------------------------------------------------
C|-------------------------------------------------------------------------------------------------9-------
G|--7--7--7--7--7--7--6--7--9--9--9--9--9--9--7--9--10--10--10--10--10--10--9--10--12--12--12--10-----9\---
D|---------------------------------------------------------------------------------------------------------

Pre-Chorus 2

D|-------------------------------------------------------------------
A|-------------------------------------------------------------------
F|-------------------------------------------------------------------
C|----------------------------------------5--------------------------
G|--2----------------------2--------------6--2--------2--2--2--2-----
D|--0-----3--2-----7--6b---0-----3--2-----6--0--------0--0--0--0-----



D|-------------------------------------------------
A|-------------------------------------------------
F|-------------------------------------------------
C|-------------------------------------------------
G|----------------------------------------2--2-----
D|--0-----3--2-----7--6b---3-----7--2-----0--0-----

Clean

D|--------0-----------0-----------0-----------0-----
A|-----------4-----4-----4-----------4-----4-----4--
F|-----4-----------------------4--------------------
C|--2-----------------------------------1-----------
G|--------------3-----------2-----------------------
D|--------------------------------------------------



D|--------0-----------0-----------0-----------------------0-----
A|-----------4-----4-----4-----------4-----------------------4--
F|-----4-----------------------4--------------------------------
C|--2--------------------------------------2-----1-----2--------
G|--------------3-----------2-----------------------------------
D|--------------------------------------3-----2-----0-----------

Solo Rhythm 

D|---------------------------------------------------------------------------------------------------------------------------------------------------------------
A|---------------------------------------------------------------------------------------------------------------------------------------------------------------
F|---------------------------------------------------------------------------------------------------------------------------------------------------------------
C|-----------------2--1--0--1--------------------------5--2-----------------------------------------------5-----5--5--5-----2--2--2--2-----5--5--5--8-----11-----
G|--2-----4--5-----3--2--1--1-----2-----2-----5--5-----6--2-----2--2-----2--2-----2-----------------------6-----6--6--6-----3--3--3--3-----6--6--6--6-----9------
D|--0-----2--3-----3--2--1--2-----------0-----3--2-----6--0-----0--0-----0--0-----0--0/7--0--0-----0h3p0--6-----6--6--6-----3--3--3--3-----6--6--6---------------



D|----------------------------------------------------------------------------------------------------
A|----------------------------------------------------------------------------------------------------
F|----------------------------------------------------------------------------------------------------
C|--------------------------------------------------------------------------------------8--8--8-9-----
G|--------------------------------------------------9-----------------------------------6--6--6-7-----
D|--0--0--0--0--2--2--2--2--3--3--3--3--8--8--8--8--7--7--7--7--7--7--7--7--7--7--7--7--6--6--6-7-----

Breakdown Repeat 4x

D|--------0-----------0-----------0-----------0-----------0-----------0-----------0-----------------
A|-----------0-----------0-----------0-----------0-----------0-----------0-----------0--------------
F|--------------------------------------------------------------------------------------------------
C|--------------5--5--------4--4--------8--8--------------------5--5--------4--4--------------------
G|--2--2--------3--3--------2--2--------6--6--------2--2--------3--3--------2--2--------5--5--5--5--
D|--0--0--------3--3--------2--2--------6--6--------0--0--------3--3--------2--2--------3--3--2--2--

Repeat ONLY Chorus Rhythm | Main Riff in Swing 

D|--
A|--
F|--
C|--
G|--
D|--

Outro

D|--------------0--
A|--------------0--
F|--------------3--
C|--------------4--
G|--2-----2-----2--
D|--0-----0-----0--

							http://www.guitartabcreator.com
Instruments
{"strings":[[[".",".",".",".",".",".",".",".",".",".",".",".",".",".",".",".","."],[".",".",".",".",12,".",11,".",".",".",".",".",12,".",13,11,"."],[2,"/",9,".",".",".",".",".",2,"/",9,".",".",".",".",".","."],[".",".",".",".",".",".",".",".",".",".",".",".",".",".",".",".","."],[".",".",".",".",".",".",".",".",".",".",".",".",".",".",".",".","."],[".",".",".",".",".",".",".",".",".",".",".",".",".",".",".",".","."]],[[".",".",".",".",".",".",".",".",".",".",".","."],[".",".",".",".",".",".",".",".",".",".",".","."],[".",".",".",".",".",".",".",".",".",".",".","."],[".",".",4,".",3,".",".",".",4,".",5,3],[2,".",2,".",1,".",2,".",2,".",3,1],[0,".",".",".",".",".",0,".",".",".",".","."]],[[".",".",".",".",".",".",".",".",".",".",".",".",".",".",".",".",".",".",".",".",0,".",".",0],[".",".",".",".",".",".",".",".",".",".",".",".",".",".",".",".",".",".",".",0,".",".",0,"."],[".",".",".",".",".",".",".",".",".",".",".",".",".",".",".",".",".",".",4,".",".",3,".","."],[".",".",".",".",".",".",".",".",".",".",".",".",".",".",".",".",".",".",".",".",".",".",".","."],[2,".",".",".",".",".",".",".",2,".",".",2,".",2,".",".",".",".",".",".",".",".",".","."],[0,".",0,0,0,0,1,4,".",4,1,0,".",0,".",0,0,0,".",".",".",".",".","."]],[[".",".",".",".",".",".",".",".",".",".",".",".",".",".",".",".",".",".",".",".",".",".",".",".",".","."],[".",".",".",".",".",".",".",".",".",".",".",".",".",".",".",".",".",".",".",".",".",".",".",".",".","."],[".",".",".",".",".",".",".",".",".",".",".",".",".",".",".",".",".",".",".",".",".",".",".",".",".","."],[".",".",".",".",".",".",".",".",".",".",".",3,".",3,".",".",".",".",".",".",".",".",".",".",".","."],[2,".",".",".",".",".",".",".",2,1,0,1,".",1,".",1,1,1,".",1,"p",0,".",".",".","."],[0,".",0,0,0,0,1,4,".",".",".",".",".",".",".",".",".",".",".",".",".",".",0,3,1,0]],[[".",".",".",".",".",".",".",".",".",".",".",".",".",".",".",".",".",".",".",".",0,".",".",0],[".",".",".",".",".",".",".",".",".",".",".",".",".",".",".",".",".",".",".",0,".",".",0,"."],[".",".",".",".",".",".",".",".",".",".",".",".",".",".",".",".",".",".",4,".",".",3,".","."],[".",".",".",".",".",".",".",".",".",".",".",".",".",".",".",".",".",".",".",".",".",".",".","."],[2,".",".",".",".",".",".",".",2,".",".",2,".",2,".",".",".",".",".",".",".",".",".","."],[0,".",0,0,0,0,1,4,".",4,1,0,".",0,".",0,0,0,".",".",".",".",".","."]],[[".",".",".",".",".",".",".",".",".",".",".",".",".",".",".",".",".",".",".",".",".",".",".",".",".",".",".",".",".",".",".","."],[".",".",".",".",".",".",".",".",".",".",".",".",".",".",".",".",".",".",".",".",".",".",".",".",".",".",".",".",".",".",".","."],[".",".",".",".",".",".",".",".",".",".",".",".",".",".",".",".",".",".",".",".",".",".",".",".",".",".",".",".",".",".",".","."],[".",".",".",".",".",".",".",".",".",".",".",3,".",3,".",3,3,3,".",3,3,".",3,3,3,".",".",".",".",".",".","."],[2,".",".",".",".",".",".",".",2,1,0,1,".",1,".",1,1,1,".",1,1,".",1,1,1,".",".",".",".",2,".","."],[0,".",0,0,0,0,1,4,".",".",".",".",".",".",".",".",".",".",".",".",".",".",".",".",".",".",0,1,4,".",4,1]],[[".",".",".",".",".",".",".",".",".",".",".",".",".",".",".",".",".",".",".",".",".",".",".",".",".",".",".",".",".",".",".",".",".",".",".","."],[".",".",".",".",".",".",".",".",".",".",".",".",".",".",".",".",".",".",".",".",".",".",".",".",".",".",".",".",".",".",".",".",".",".",".","."],[".",".",".",".",".",".",".",".",".",".",".",".",".",".",".",".",".",".",".",".",".",".",".",".",".",".",".",".",".",".",".",".",".",0,".","."],[".",".",".",4,"/",5,".",3,".",4,".",".",".",".",".",".",".",".",".",".",".",".",".",4,".",".",".",".",".",".",".",".",4,".",4,"."],[2,".",".",2,"/",3,".",1,".",2,".",".",".",".",".",".",".",".",".",5,".",".",5,2,".",".",".",2,".",".",".",".",".",".",".","."],[0,".",0,".",".",".",0,".",0,".",0,0,0,".",0,0,0,0,".",3,0,0,3,".",2,"b",".",0,".",".",0,2,".",".",".",2]],[[".",".",".",".",".",".",".",".",".",".",".",".",".",".",".",".",".",".",".",".",".",".",".",".",".",".",".",".",".",".",".","."],[".",".",".",".",".",".",".",".",".",".",".",".",".",".",".",".",".",".",".",".",".",".",".",".",".",".",".",".",".",".",".","."],[".",".",".",".",".",".",".",".",".",".",".",".",".",".",".",".",".",".",".",".",".",".",".",".",".",".",".",".",".",".",".","."],[".",".",".",".",".",".",".",".",5,5,5,5,5,5,5,5,2,2,2,2,2,2,2,2,1,1,1,".",".",".",".","."],[2,".",2,2,2,2,2,2,6,6,6,6,6,6,6,6,3,3,3,3,3,3,3,3,2,2,2,".",2,".",".","."],[0,".",0,0,0,0,0,0,6,6,6,6,6,6,6,6,3,3,3,3,3,3,3,3,2,2,2,3,".",2,"b","."]],[[".",".",".",".",".",".",".",".",".",".",".",".",".",".",".",".",".",".",".",".",".",".",".",".",".",".",".",".",".",".",".","."],[".",".",".",".",".",".",".",".",".",".",".",".",".",".",".",".",".",".",".",".",".",".",".",".",".",".",".",".",".",".",".","."],[9,9,9,9,9,9,9,9,8,8,8,8,8,8,8,8,5,5,5,5,5,5,5,5,4,4,4,".",".",".",".","."],[".",".",".",".",".",".",".",".",".",".",".",".",".",".",".",".",".",".",".",".",".",".",".",".",".",".",".",".",".",".",".","."],[7,7,7,7,7,7,7,7,6,6,6,6,6,6,6,6,3,3,3,3,3,3,3,3,2,2,2,".",2,".",".","."],[".",".",".",".",".",".",".",".",".",".",".",".",".",".",".",".",".",".",".",".",".",".",".",".",".",".",".",3,".",2,"b","."]],[[".",".",".",".",".",".",".",".",".",".",".",".",".",".",".",".",".",".",".",".",".",".",".",".",".",".",".",".",".",".",".",".",".",".",".",".",".",".",".",".",".",".","."],[".",".",".",".",".",".",".",".",".",".",".",".",".",".",".",".",".",".",".",".",".",".",".",".",".",".",".",".",".",".",".",".",".",".",".",".",".",".",".",".",".",".","."],[".",".",".",".",".",".",".",".",".",".",".",".",".",".",".",".",".",".",".",".",".",".",".",".",".",".",".",".",".",".",".",".",".",".",".",".",".",".",".",".",".",".","."],[".",".",".",".",".",".",4,4,".",".",".",".",".",".",".",".",".",".",".",".",".",".",".",".",".",".",".",".",".",9,9,".",".",".",".",".",".",".",".",".",".",".","."],[2,".","x",5,5,"x",2,1,".",".",".",".",".",".",".",".",".",".",".",".",".",".",2,".","x",5,5,".","x",6,7,".",".",".",".",".",".",".",".",".",".",".","."],[0,".","x",3,2,"x",".",".",0,0,0,".",0,0,0,".",0,0,0,".",0,0,0,".","x",3,2,".","x",".",".",0,0,0,".",0,0,0,".",0,0,0,"."]],[[".",".",".",".",".",".",".",".",".",".",".",".",".",".",".",".",".",".",".",".",".",".",".",".",".",".",".",".",".",12,12,12,12,12,12,"."],[".",".",".",".",".",".",".",".",".",".",".",".",".",".",".",".",".",".",".",".",".",".",".",".",".",".",".",".",".",12,12,12,12,12,12,"."],[".",".",".",".",".",".",".",".",".",".",".",".",".",".",".",".",".",".",".",".",".",".",".",".",".",".",".",".",".",12,12,12,12,12,12,"."],[".",".",".",".",".",".",4,4,".",".",".",".",".",".",".",".",".",".",".",".",".",".",".",".",".",".",9,9,".",9,9,9,9,9,9,"."],[2,".","x",5,5,"x",2,1,".",".",".",".",".",".",".",".",".",".",".",".",".",".",2,".",".",".",6,7,".",7,7,7,7,7,7,"."],[0,".","x",3,2,"x",".",".",0,0,0,".",0,0,0,".",0,0,0,".",0,0,0,".",3,2,".",".",".",".",".",".",".",".",".","."]],[[".",".",".",".",".",".",".",".",".",".",".",".",".",".",".",".",7,".",".",".",7,".",".",".",7,".",".",".",7,".",".",".","."],[".",".",".",".",13,12,11,12,".",".",".",".",".",".",".",".",".",8,".",8,".",8,".",8,".",8,".",8,".",8,".",".","."],[9,".",11,12,".",".",".",".",".",".",9,".",12,11,".",8,".",".",9,".",".",".",9,".",".",".",9,".",".",".",9,8,"."],[".",".",".",".",".",".",".",".",".",".",".",".",".",".",".",".",".",".",".",".",".",".",".",".",".",".",".",".",".",".",".",".","."],[".",".",".",".",".",".",".",".",".",".",".",".",".",".",".",".",".",".",".",".",".",".",".",".",".",".",".",".",".",".",".",".","."],[".",".",".",".",".",".",".",".",".",".",".",".",".",".",".",".",".",".",".",".",".",".",".",".",".",".",".",".",".",".",".",".","."]],[[".",".",".",".",".",".",".",".",".",".",".",".",".",".",".",".",".",".",".",".",".",".",".",".",".",".",".",".",".","."],[".",".",".",".",".",".",".",".",".",".",".",".",".",".",".",".",".",".",".",".",".",".",".",".",".",".",".",".",".","."],[".",".",".",".",".",".",".",".",".",".",".",".",".",".",".",".",".",".",".",".",".",".",".",".",".",".",".",".",".","."],[".",".",".",".",5,4,".",3,4,".",".",".",".",".",".",5,".",".",".",".",".",".",".",".",".",".",".",".",".","."],[2,".",".",".",3,2,".",1,2,".",2,".",5,4,".",6,2,".",2,2,".",2,2,".",2,2,".",2,2,"."],[0,".",2,3,3,2,".",1,".",".",0,".",3,2,".",6,0,".",0,0,".",0,0,".",0,0,".",0,0,"."]],[[],[],[],[],[],[]],[[".",".",".",".",".",".",".",".",".",".",".",".",".",".",".",".",".",".",".",".",".",".",".",".",".",".",".",".",".",".",".","."],[".",".",".",".",".",".",".",".",".",".",".",".",".",".",".",".",".",".",".",".",".",".",".",".",".",".",".",".",".",".",".","."],[".",".",".",".",".",".",".",".",".",".",".",".",".",".",".",".",".",".",".",".",".",".",".",".",".",".",".",".",".",".",".","."],[".",".",".",".",".",".",".",".",5,5,5,5,5,5,5,5,2,2,2,2,2,2,2,2,1,1,1,".",".",".",".","."],[2,2,2,2,2,2,2,2,6,6,6,6,6,6,6,6,3,3,3,3,3,3,3,3,2,2,2,".",2,".",".","."],[0,0,0,0,0,0,0,0,6,6,6,6,6,6,6,6,3,3,3,3,3,3,3,3,2,2,2,3,".",2,"b","."]],[[".",".",".",".",".",".",".",".",".",".",".",".",".",".",".",".",".",".",".",".",".",".",".",".",".",".",".",".",".",".",".","."],[".",".",".",".",".",".",".",".",".",".",".",".",".",".",".",".",".",".",".",".",".",".",".",".",".",".",".",".",".",".",".","."],[".",".",".",".",".",".",".",".",".",".",".",".",".",".",".",".",".",".",".",".",".",".",".",".",".",".",".",".",".",".",".","."],[".",".",".",".",".",".",".",".",".",".",".",".",".",".",".",".",".",".",".",".",".",".",".",".",".",".",".",".",9,".",".","."],[7,7,7,7,7,7,6,7,9,9,9,9,9,9,7,9,10,10,10,10,10,10,9,10,12,12,12,10,".",9,"\\","."],[".",".",".",".",".",".",".",".",".",".",".",".",".",".",".",".",".",".",".",".",".",".",".",".",".",".",".",".",".",".",".","."]],[[".",".",".",".",".",".",".",".",".",".",".",".",".",".",".",".",".",".",".",".",".",".","."],[".",".",".",".",".",".",".",".",".",".",".",".",".",".",".",".",".",".",".",".",".",".","."],[".",".",".",".",".",".",".",".",".",".",".",".",".",".",".",".",".",".",".",".",".",".","."],[".",".",".",".",".",".",".",".",".",".",".",".",".",".",5,".",".",".",".",".",".",".","."],[2,".",".",".",".",".",".",".",".",2,".",".",".",".",6,2,".",".",2,2,2,2,"."],[0,".",3,2,".",7,6,"b",".",0,".",3,2,".",6,0,".",".",0,0,0,0,"."]],[[".",".",".",".",".",".",".",".",".",".",".",".",".",".",".",".","."],[".",".",".",".",".",".",".",".",".",".",".",".",".",".",".",".","."],[".",".",".",".",".",".",".",".",".",".",".",".",".",".",".",".","."],[".",".",".",".",".",".",".",".",".",".",".",".",".",".",".",".","."],[".",".",".",".",".",".",".",".",".",".",".",".",".",".",2,2,"."],[0,".",3,2,".",7,6,"b",".",3,".",7,2,".",0,0,"."]],[[".",".",0,".",".",".",0,".",".",".",0,".",".",".",0,"."],[".",".",".",4,".",4,".",4,".",".",".",4,".",4,".",4],[".",4,".",".",".",".",".",".",".",4,".",".",".",".",".","."],[2,".",".",".",".",".",".",".",".",".",".",".",1,".",".","."],[".",".",".",".",3,".",".",".",2,".",".",".",".",".",".","."],[".",".",".",".",".",".",".",".",".",".",".",".",".",".",".","."]],[[".",".",0,".",".",".",0,".",".",".",0,".",".",".",".",".",".",".",0,"."],[".",".",".",4,".",4,".",4,".",".",".",4,".",".",".",".",".",".",".",4],[".",4,".",".",".",".",".",".",".",4,".",".",".",".",".",".",".",".",".","."],[2,".",".",".",".",".",".",".",".",".",".",".",".",2,".",1,".",2,".","."],[".",".",".",".",3,".",".",".",2,".",".",".",".",".",".",".",".",".",".","."],[".",".",".",".",".",".",".",".",".",".",".",".",3,".",2,".",0,".",".","."]],[[".",".",".",".",".",".",".",".",".",".",".",".",".",".",".",".",".",".",".",".",".",".",".",".",".",".",".",".",".",".",".",".",".",".",".",".",".",".",".",".",".",".",".",".",".",".",".",".",".",".",".",".",".",".",".","."],[".",".",".",".",".",".",".",".",".",".",".",".",".",".",".",".",".",".",".",".",".",".",".",".",".",".",".",".",".",".",".",".",".",".",".",".",".",".",".",".",".",".",".",".",".",".",".",".",".",".",".",".",".",".",".","."],[".",".",".",".",".",".",".",".",".",".",".",".",".",".",".",".",".",".",".",".",".",".",".",".",".",".",".",".",".",".",".",".",".",".",".",".",".",".",".",".",".",".",".",".",".",".",".",".",".",".",".",".",".",".",".","."],[".",".",".",".",".",2,1,0,1,".",".",".",".",".",".",".",".",5,2,".",".",".",".",".",".",".",".",".",".",".",".",".",".",".",".",".",".",".",5,".",5,5,5,".",2,2,2,2,".",5,5,5,8,".",11,"."],[2,".",4,5,".",3,2,1,1,".",2,".",2,".",5,5,".",6,2,".",2,2,".",2,2,".",2,".",".",".",".",".",".",".",".",".",".",".",6,".",6,6,6,".",3,3,3,3,".",6,6,6,6,".",9,"."],[0,".",2,3,".",3,2,1,2,".",".",".",0,".",3,2,".",6,0,".",0,0,".",0,0,".",0,0,"/",7,0,0,".",0,"h",3,"p",0,6,".",6,6,6,".",3,3,3,3,".",6,6,6,".",".",".","."]],[[".",".",".",".",".",".",".",".",".",".",".",".",".",".",".",".",".",".",".",".",".",".",".",".",".",".",".",".",".",".",".",".",".","."],[".",".",".",".",".",".",".",".",".",".",".",".",".",".",".",".",".",".",".",".",".",".",".",".",".",".",".",".",".",".",".",".",".","."],[".",".",".",".",".",".",".",".",".",".",".",".",".",".",".",".",".",".",".",".",".",".",".",".",".",".",".",".",".",".",".",".",".","."],[".",".",".",".",".",".",".",".",".",".",".",".",".",".",".",".",".",".",".",".",".",".",".",".",".",".",".",".",8,8,8,"/",9,"."],[".",".",".",".",".",".",".",".",".",".",".",".",".",".",".",".",9,".",".",".",".",".",".",".",".",".",".",".",6,6,6,"/",7,"."],[0,0,0,0,2,2,2,2,3,3,3,3,8,8,8,8,7,7,7,7,7,7,7,7,7,7,7,7,6,6,6,"/",7,"."]],[[".",".",0,".",".",".",0,".",".",".",0,".",".",".",0,".",".",".",0,".",".",".",0,".",".",".",0,".",".",".",".","."],[".",".",".",0,".",".",".",0,".",".",".",0,".",".",".",0,".",".",".",0,".",".",".",0,".",".",".",0,".",".",".","."],[".",".",".",".",".",".",".",".",".",".",".",".",".",".",".",".",".",".",".",".",".",".",".",".",".",".",".",".",".",".",".","."],[".",".",".",".",5,5,".",".",4,4,".",".",8,8,".",".",".",".",".",".",5,5,".",".",4,4,".",".",".",".",".","."],[2,2,".",".",3,3,".",".",2,2,".",".",6,6,".",".",2,2,".",".",3,3,".",".",2,2,".",".",5,5,5,5],[0,0,".",".",3,3,".",".",2,2,".",".",6,6,".",".",0,0,".",".",3,3,".",".",2,2,".",".",3,3,2,2]],[[],[],[],[],[],[]],[[".",".",".",".",0],[".",".",".",".",0],[".",".",".",".",3],[".",".",".",".",4],[2,".",2,".",2],[0,".",0,".",0]]],"numberofstrings":6,"notes":["D","A","F","C","G","D"],"capo":0,"stringnotes":["D3","A2","F2","C2","G1","D1"],"comments":["Intro Lead Repeat 2x","Intro Rhythm Repeat 2x","Main Riff (Played in Swing)","","","","Verse 1 Repeat 2x","Alt Verse 1","","Pre-Chorus 1","","Chorus Lead 1 Repeat 2x","Chorus Rhythm 1 Repeat 2x","Repeat main riff | Verse ","Alt Verse 2","","Pre-Chorus 2","","Clean","","Solo Rhythm ","","Breakdown Repeat 4x","Repeat ONLY Chorus Rhythm | Main Riff in Swing ","Outro"],"timing":[[null,"W",null,"W",null,"W","W","W",null,"W",null,"W",null,"W","W","W","W"],[null,null,"W","W",null,"W",null,"W",null,"W",null,"W","W",null,null,null,null,"W"],[null,"W",null,"W","W","W","W","W","W","W","W","W","W","W","W",null,"W","W","W","W","W","W","W","W","W"],[null,"W",null,"W","W","W","W","W","W","W","W","W","W","W","W",null,"W","W","W",null,"W","W",null,"W","W","W","W"],[null,"W",null,"W","W","W","W","W","W","W","W","W","W",null,"W",null,"W","W","W","W","W","W",null,"W","W"],[null,"W",null,"W","W","W","W","W","W","W","W","W","W",null,"W",null,"W","W","W",null,"W","W",null,"W","W","W",null,"W","W","W","W","W","W"],[null,"W",null,"W","W","W",null,"W","W","W","W","W","W","W",null,"W","W","W","W",null,"W","W","W","W","W","W",null,null,"W","W","W","W","W","W","W","W","W"],[null,"W",null,"W","W","W","W","W","W","W","W","W","W","W","W","W","W","W","W","W","W","W","W","W","W","W","W","W","W","W","W","W","W","W"],[null,"W","W","W","W","W","W","W","W","W","W","W","W","W","W","W","W","W","W","W","W","W","W","W","W","W","W","W","W","W","W"],[null,"W",null,"W","W","W","W","W","W","W",null,"W","W","W",null,"W","W","W",null,"W","W","W",null,null,null,null,"W","W","W",null,null,"W","W","W","W",null,"W","W","W",null,"W","W","W"],[null,"W",null,null,"W","W",null,"W","W","W","W","W",null,"W","W","W",null,"W","W","W",null,"W","W","W","W","W","W","W","W",null,"W","W","W","W","W","W","W",null,null,null,null,null,null,"W"],[null,"W",null,"W","W","W","W","W","W",null,null,"W",null,"W","W",null,"W","W","W","W","W","W","W","W","W","W","W","W","W","W","W","W","W","W","W"],[null,"W",null,"W","W","W","W",null,"W","W",null,"W",null,"W","W",null,"W","W",null,"W","W",null,"W","W",null,"W","W",null,"W","W","W"],[],[null,"W","W","W","W","W","W","W","W","W","W","W","W","W","W","W","W","W","W","W","W","W","W","W","W","W","W","W","W","W","W"],[null,"W","W","W","W","W","W","W","W","W","W","W","W","W","W","W","W","W","W","W","W","W","W","W","W","W","W","W","W","W","W"],[null,"W",null,"W","W",null,"W","W",null,null,"W","W","W","W",null,null,"W",null,null,"W","W","W","W","W"],[null,"W",null,"W","W",null,"W","W",null,null,"W","W","W","W",null,"W","W"],[null,"W","W","W","W","W","W","W","W","W","W","W","W","W","W","W","W"],[null,"W","W","W","W","W","W","W","W","W","W","W","W","W","W","W","W","W",null,"W","W"],[null,"W",null,"W","W",null,"W","W","W","W",null,"W",null,"W",null,"W","W",null,"W","W",null,"W","W",null,"W","W",null,"W","W",null,"W","W",null,"W","W","W","W","W","W","W",null,"W","W","W",null,"W","W","W","W",null,"W","W","W","W",null,"W","W"],[null,"W","W","W","W","W","W","W","W","W","W","W","W","W","W","W","W","W","W","W","W","W","W","W","W","W","W","W","W","W","W","W","W","W"],[null,"W","W","W","W","W","W","W","W","W","W","W","W","W","W",null,"W","W","W",null,null,"W","W",null,null,"W","W",null,"W","W","W","W","W"],[],[null,"W",null,"W","W"]],"timingvisible":false,"tabcounter":5,"stave":24,"totalstaves":25,"instrument":"6guitar","selectedtuning":"Full Step Down","version":"13"}

Member for

7 months 3 weeks
Submitted by treyhu2014 on Thu, 2020-05-07 13:51