Basiphobia By Lethean

Chords

01234567891011121314151617181920212223
E
B
G
D
A
E
B
0 1 2 3 4 5 6 7 8 9 10 11 12 13 14 15 16 17 18 19 20 21 22 23
(/) Slide Up  (\) Slide Down  (h) Hammer On  (p) Pull Off  (b) Bend (r) Release (v) Vibrato

Intro: Repeat 2x

D|--------------------------------------------------------------------------------------------------------
A|--------------------------------------------------------------------------------------------------------
F|--------------------------------------------------------------------------------------------------------
C|--------------------------------------------------------------------------------------------------------
G|--0--0--0--0--0--0--0--0--0--0--0--0--0--0--0--0--0--0--0--0--0--0--0--0--0--0--0--0--0--0--0--0--0-----
D|--------------------------------------------------------------------------------------------------------

Verse #1 Repeat 2x

D|-----------------------------------------------------------------------------------------------------------------------------------
A|-----------------------------------------------------------------------------------------------------------------------------------
F|--------------9--------7--------10--9----------------------------------------------9--------7--------10----------------------------
C|--2-----------7--------7--------7---7--------------------------------2----2--------7--------7--------7-----------3-----------6-----
G|--0-----0--0-----0--0-----0--0---------0--0--0-----0--0--0-----0--0--0----0--0--0-----0--0-----0--0--------------------------------
D|------------------------------------------------------------------------4r---------------------------------1--1-----1--4--4-----4--

ALT Verse #1

D|--------------------------------------------------------------------------------------------------------------------------------------------------------------------------------------
A|--------------------------------------------------------------------------------------------------------------------------------------------------------------------------------------
F|--------------------------------------------------------------------------------------------------------------------------------------------------------------------------------------
C|--------------------------------------------------------------------------------------------------------------------------------------------------------------------------------------
G|--2-----2--2--2-----0--2-----2--2--3--2--------2-----2--2--2-----3--2-----2--2--------------2-----2--2--2-----0--2-----2--2--3--2--------2-----2--2--2-----3--2-----2--2--7--5--3--2--
D|--0-----0--0--0--4-----0-----0--0--3--3--4--1--0-----0--0--0--7-----0-----0--0--8--7--5--4--0-----0--0--0--4-----0-----0--0--3--3--4--1--0-----0--0--0--7-----0-----0--0--------------

Chorus #1 Repeat 2x

D|--------------------------------------------------------------------------------------------------------------------------------------------------
A|--------------------------------------------------------------------------------------------------------------------------------------------------
F|--------------------------------------------------------------------------------------------------------------------------------------------------
C|--2--------------------------------------------------------------------------2--------------------------------------------------3-----------6-----
G|--0-----0--2--3--7-----5-----3--2--3--5--2-----2--2--2-----0-----3--2--0--4--0-----0--2--3--7--5--8--7--5--3--2-----2--2--2-----------------------
D|-----------------------------------------0-----0--0--0--4-----4-----------------------------------------------0-----0--0--0--1-----1--4--4-----4--

Bridge #1 Repeat 2x

D|--------------------------------------------------------------------------------------------------------------------------------------------------------------------------------------------------------
A|--------------------------------------------------------------------------------------------------------------------------------------------------------------------------------------------------------
F|--------------------------------------------------------------------------------------------------------------------------------------------------------------------------------------------------------
C|--2-----------------------------------------------------------------------------------2-----------------------------------------------------------------------------------------------------------------
G|--0-----0--0--0--0--0--0--0--0--0--0--0--0--0--0--0--0--0--0--0--0--0--0--0--0--------0-----0--0--0--0--0--0--0--0--0--0--0--0--0--0--0--0--0-----0--7--7--------------------6--6-----------------------
D|--------------------------------------------------------------------------------1--4-----------------------------------------------------------------------8--8--5--5--8--8--------7--7--4--4--7--7-----

Verse #2 Repeat 2x

D|----------------------------------------------------------------------------------------------------------------------------------------
A|----------------------------------------------------------------------------------------------------------------------------------------
F|----------------------------------------------------------------------------------------------------------------------------------------
C|----------------------------------------------------------------------------------------------------------------------------------------
G|--7-----------7--------5--------8--7-----------------------------------------7-----------7--------5--------8----------7-----------6-----
D|--5-----5--5--5--5--5--5--5--5--5--5-----5--5--5-----5--5--5-----5--5--1--4--5-----5--5--5--5--5--5--5--5--5----8--8-----8--7--7-----6--

ALT Verse #2

D|--------------------------------------------------------------------------------------------
A|--------------------------------------------------------------------------------------------
F|--------------------------------------------------------------------------------------------
C|--------------------------------------------------------------------------------------------
G|--2-----2--2--2-----0--2-----2--2--3--2--------2-----2--2--2-----3--2-----2--2--------------
D|--0-----0--0--0--4-----0-----0--0--3--3--4--1--0-----0--0--0--7-----0-----0--0--8--7--5--4--

Short Heavy Part

D|--------------------------------------------------------------------------------------------
A|--------------------------------------------------------------------------------------------
F|--------------------------------------------------------------------------------------------
C|--------------------------------------------------3--3--3--3--------------------------------
G|--2--------2--2--2--2--2--2--2--2--2--2--2--2--2--2--2--2--2--2-----2--2--2--2--3--------6--
D|--0--------0--0--0--0--0--0--0--0--0--0--0--0--0--1--1--1--1--0-----0--0--0--0--1--------4--

Chorus #2

D|-----
A|-----
F|-----
C|-----
G|-----
D|-----

Bridge #2 (Before Solo)

D|--------------------------------------------------------------------------------------------------------------------------------------------------------------------------------------------------------------------------------
A|--------------------------------------------------------------------------------------------------------------------------------------------------------------------------------------------------------------------------------
F|--------------------------------------------------------------------------------------------------------------------------------------------------------------------------------------------------------------------------------
C|--2-----------------------------------------------------------------------------------------------------------------------------------------------------------------------------------------------------------------------------
G|--0-----0--0--0--0--0--0--0--0--0--0--0--0--7--7--7--7--5--5--5--5--3--3--3--3--2--3--5----------------------------------------------------------------------5--5--5--5--3--3--3--3--2--2--2--2--3--2--3h---2p------------------
D|-----------------------------------------------------------------------------------------3r---3--3--3--3--3--3--3--3--3--3--3--3--3--3--3--3--3--3--3--3--3------------------------------------------------------5--3--5--------



D|-----------------------------------------------------------------------------------------------------------------------------------------------------------------------------------------
A|-----------------------------------------------------------------------------------------------------------------------------------------------------------------------------------------
F|-----------------------------------------------------------------------------------------------------------------------------------------------------------------------------------------
C|--2--------------------------------------------------------------------------------------------------------------------------------------------------------------------------------------
G|--0-----0--0--0--0--0--0--0--0--0--0--0--0--7--7--7--7--5--5--5--5--8--8--8--8--8--7--7--5--5--3--3--5-----------------------------------------------------------------3--2-----3--2-----
D|-----------------------------------------------------------------------------------------------------3-----3--3--3--3--3--3--3--3--3--3--3--3--3--3--3--3--3--3--3-----------3--------3--

Solo

D|-------------0-----------7-----------8-------------------------------------------------------------------------0-----------7-----------8-------------------------------------------------------------------------------------------------------------------------------
A|----------------0-----------0-----------0-------------------------------------------------------------------------0-----------0-----------0----------------------------------------------------------------------------------------------------------------------------
F|----------5--------5-----------5-----------5-----------------0-----------------------0----------------------5--------5-----------5-----------5-----5-----7--9----------------------------------------------------------------------------------------------------------
C|--2-----7/------------7-----------7-----------7--------2--------2-----2--------5--------5-----5-----2-----7/------------7-----------7-----------7--5-----7--9----------------2-----------------------2--2--2--2--2--2--2--2--2-----------------------------------------
G|--0-------------------------------------------------2-----2--------2--------5-----5--------5--------0----------------------------------------------3-----5--7----3-----5-----0-----------------------0--0--0--0--0--0--0--0--0-----------------------------------------
D|-------------------------------------------------0-----------------------3-------------------------------------------------------------------------3-----5--7----1-----3-----------------------------------------------------------------------------------------------

Clean Riff Repeat 2x

D|--------------0-----------7-----------8----------------------------------------------------------------0-----------7-----------8----------------------------------------------------------------
A|-----------0-----0-----------0-----------0----------------------------------------------------------------0-----------0-----------0-------------------------------------------------------------
F|--------5-----------5-----------5-----------5----------------------------------------------------------------5-----------5-----------5----------------------0-----------------------0-----------
C|-----7-----------------7-----------7-----------7--7------------7------------5-----------5-----------------------7-----------7-----------7-------------3--------3-----3--------5--------5-----5--
G|--0--------------------------------------------------8------8-----8------8-----7-----7-----7-----7--0----------------------------------------------3-----3--------3--------5-----5--------5-----
D|--------------------------------------------------------10-----------10-----------8-----------7--------------------------------------------8\---1-----------------------3-----------------------

Final Chorus Build

D|--------------------------------------------------------
A|--------------------------------------------------------
F|--------------------------------------------------------
C|--------------------------------------------------------
G|--3--3--3--3--3--3--3--3--5--5--5--5--5--5--2--5--------
D|--1--1--1--1--1--1--1--1--3--3--3--3--3--3--0--3--------

Final Chorus Repeat 4x

D|------------------------------------------------------------------------------------------
A|------------------------------------------------------------------------------------------
F|--------9----9--9--9--7--7--7--7--10--10--10--9-----------------10--10--10--10----9----7--
C|--2-----7----7--7--7--7--7--7--7--7---7---7---7-------------------------------------------
G|--0----------------------------------------------2-----2--------8---8---8---8-----7----5--
D|-------------------------------------------------0-----0----------------------------------

Ending Build

D|-----------------------------------------------------
A|-----------------------------------------------------
F|-----------------------------------------------------
C|--------------------------------------------------2--
G|--3--3--3--3--3--3--3--3--2--2--2--2--2--2--2--2--0--
D|--1--1--1--1--1--1--1--1--4--4--4--4--4--4--0--4-----

							http://www.guitartabcreator.com
Instruments
{"strings":[[[".",".",".",".",".",".",".",".",".",".",".",".",".",".",".",".",".",".",".",".",".",".",".",".",".",".",".",".",".",".",".",".",".","."],[".",".",".",".",".",".",".",".",".",".",".",".",".",".",".",".",".",".",".",".",".",".",".",".",".",".",".",".",".",".",".",".",".","."],[".",".",".",".",".",".",".",".",".",".",".",".",".",".",".",".",".",".",".",".",".",".",".",".",".",".",".",".",".",".",".",".",".","."],[".",".",".",".",".",".",".",".",".",".",".",".",".",".",".",".",".",".",".",".",".",".",".",".",".",".",".",".",".",".",".",".",".","."],[0,0,0,0,0,0,0,0,0,0,0,0,0,0,0,0,0,0,0,0,0,0,0,0,0,0,0,0,0,0,0,0,0,"."],[".",".",".",".",".",".",".",".",".",".",".",".",".",".",".",".",".",".",".",".",".",".",".",".",".",".",".",".",".",".",".",".",".","."]],[[".",".",".",".",".",".",".",".",".",".",".",".",".",".",".",".",".",".",".",".",".",".",".",".",".",".",".",".",".",".",".",".",".",".",".",".",".",".",".",".",".",".",".",".","."],[".",".",".",".",".",".",".",".",".",".",".",".",".",".",".",".",".",".",".",".",".",".",".",".",".",".",".",".",".",".",".",".",".",".",".",".",".",".",".",".",".",".",".",".","."],[".",".",".",".",9,".",".",7,".",".",10,9,".",".",".",".",".",".",".",".",".",".",".",".",".",".",".",".",9,".",".",7,".",".",10,"\\",".",".",".",".",".",".",".",".","."],[2,".",".",".",7,".",".",7,".",".",7,7,".",".",".",".",".",".",".",".",".",".",2,".",".",2,".",".",7,".",".",7,".",".",7,"\\",".",".",".",3,".",".",".",6,"."],[0,".",0,0,".",0,0,".",0,0,".",".",0,0,0,".",0,0,0,".",0,0,0,".",".",0,0,0,".",0,0,".",0,0,".",".",".",".",".",".",".",".",".",".","."],[".",".",".",".",".",".",".",".",".",".",".",".",".",".",".",".",".",".",".",".",".",".",".",4,"r",".",".",".",".",".",".",".",".",".",".",".",".",1,1,".",1,4,4,".",4]],[[".",".",".",".",".",".",".",".",".",".",".",".",".",".",".",".",".",".",".",".",".",".",".",".",".",".",".",".",".",".",".",".",".",".",".",".",".",".",".",".",".",".",".",".",".",".",".",".",".",".",".",".",".",".",".",".",".",".",".","."],[".",".",".",".",".",".",".",".",".",".",".",".",".",".",".",".",".",".",".",".",".",".",".",".",".",".",".",".",".",".",".",".",".",".",".",".",".",".",".",".",".",".",".",".",".",".",".",".",".",".",".",".",".",".",".",".",".",".",".","."],[".",".",".",".",".",".",".",".",".",".",".",".",".",".",".",".",".",".",".",".",".",".",".",".",".",".",".",".",".",".",".",".",".",".",".",".",".",".",".",".",".",".",".",".",".",".",".",".",".",".",".",".",".",".",".",".",".",".",".","."],[".",".",".",".",".",".",".",".",".",".",".",".",".",".",".",".",".",".",".",".",".",".",".",".",".",".",".",".",".",".",".",".",".",".",".",".",".",".",".",".",".",".",".",".",".",".",".",".",".",".",".",".",".",".",".",".",".",".",".","."],[2,".",2,2,2,".",0,2,".",2,2,3,2,".",".",2,".",2,2,2,".",3,2,".",2,2,".",".",".",".",2,".",2,2,2,".",0,2,".",2,2,3,2,".",".",2,".",2,2,2,".",3,2,".",2,2,7,5,3,2],[0,".",0,0,0,4,".",0,".",0,0,3,3,4,1,0,".",0,0,0,7,".",0,".",0,0,8,7,5,4,0,".",0,0,0,4,".",0,".",0,0,3,3,4,1,0,".",0,0,0,7,".",0,".",0,0,".",".",".","."]],[[".",".",".",".",".",".",".",".",".",".",".",".",".",".",".",".",".",".",".",".",".",".",".",".",".",".",".",".",".",".",".",".",".",".",".",".",".",".",".",".",".",".",".",".",".",".",".","."],[".",".",".",".",".",".",".",".",".",".",".",".",".",".",".",".",".",".",".",".",".",".",".",".",".",".",".",".",".",".",".",".",".",".",".",".",".",".",".",".",".",".",".",".",".",".",".","."],[".",".",".",".",".",".",".",".",".",".",".",".",".",".",".",".",".",".",".",".",".",".",".",".",".",".",".",".",".",".",".",".",".",".",".",".",".",".",".",".",".",".",".",".",".",".",".","."],[2,".",".",".",".",".",".",".",".",".",".",".",".",".",".",".",".",".",".",".",".",".",".",".",".",2,".",".",".",".",".",".",".",".",".",".",".",".",".",".",".",".",3,".",".",".",6,"."],[0,".",0,2,3,7,".",5,".",3,2,3,5,2,".",2,2,2,".",0,".",3,2,0,4,0,".",0,2,3,7,5,8,7,5,3,2,".",2,2,2,".",".",".",".",".",".","."],[".",".",".",".",".",".",".",".",".",".",".",".",".",0,".",0,0,0,4,".",4,".",".",".",".",".",".",".",".",".",".",".",".",".",".",".",0,".",0,0,0,1,".",1,4,4,".",4]],[[".",".",".",".",".",".",".",".",".",".",".",".",".",".",".",".",".",".",".",".",".",".",".",".",".",".",".",".",".",".",".",".",".",".",".",".",".",".",".",".",".",".",".",".",".",".",".",".",".",".",".",".",".",".",".",".",".",".",".",".",".",".",".",".",".","."],[".",".",".",".",".",".",".",".",".",".",".",".",".",".",".",".",".",".",".",".",".",".",".",".",".",".",".",".",".",".",".",".",".",".",".",".",".",".",".",".",".",".",".",".",".",".",".",".",".",".",".",".",".",".",".",".",".",".",".",".",".",".",".",".",".","."],[".",".",".",".",".",".",".",".",".",".",".",".",".",".",".",".",".",".",".",".",".",".",".",".",".",".",".",".",".",".",".",".",".",".",".",".",".",".",".",".",".",".",".",".",".",".",".",".",".",".",".",".",".",".",".",".",".",".",".",".",".",".",".",".",".","."],[2,".",".",".",".",".",".",".",".",".",".",".",".",".",".",".",".",".",".",".",".",".",".",".",".",".",".",".",2,".",".",".",".",".",".",".",".",".",".",".",".",".",".",".",".",".",".",".",".",".",".",".",".",".",".",".",".",".",".",".",".",".",".",".",".","."],[0,".",0,0,0,0,0,0,0,0,0,0,0,0,0,0,0,0,0,0,0,0,0,0,0,0,".",".",0,".",0,0,0,0,0,0,0,0,0,0,0,0,0,0,0,0,0,".",0,7,7,".",".",".",".",".",".",6,6,".",".",".",".",".",".","."],[".",".",".",".",".",".",".",".",".",".",".",".",".",".",".",".",".",".",".",".",".",".",".",".",".",".",1,4,".",".",".",".",".",".",".",".",".",".",".",".",".",".",".",".",".",".",".",".",".",".",".",8,8,5,5,8,8,".",".",7,7,4,4,7,7,"."]],[[".",".",".",".",".",".",".",".",".",".",".",".",".",".",".",".",".",".",".",".",".",".",".",".",".",".",".",".",".",".",".",".",".",".",".",".",".",".",".",".",".",".",".",".",".","."],[".",".",".",".",".",".",".",".",".",".",".",".",".",".",".",".",".",".",".",".",".",".",".",".",".",".",".",".",".",".",".",".",".",".",".",".",".",".",".",".",".",".",".",".",".","."],[".",".",".",".",".",".",".",".",".",".",".",".",".",".",".",".",".",".",".",".",".",".",".",".",".",".",".",".",".",".",".",".",".",".",".",".",".",".",".",".",".",".",".",".",".","."],[".",".",".",".",".",".",".",".",".",".",".",".",".",".",".",".",".",".",".",".",".",".",".",".",".",".",".",".",".",".",".",".",".",".",".",".",".",".",".",".",".",".",".",".",".","."],[7,".",".",".",7,".",".",5,".",".",8,7,".",".",".",".",".",".",".",".",".",".",".",".",".",7,".",".",".",7,".",".",5,".",".",8,"\\",".",".",".",7,".",".",".",6,"."],[5,".",5,5,5,5,5,5,5,5,5,5,".",5,5,5,".",5,5,5,".",5,5,1,4,5,".",5,5,5,5,5,5,5,5,5,"\\",".",8,8,".",8,7,7,".",6]],[[".",".",".",".",".",".",".",".",".",".",".",".",".",".",".",".","_",".",".",".",".",".",".",".",".",".",".",".",".","."],[".",".",".",".",".",".",".",".",".",".",".",".",".",".",".",".","_",".",".",".",".",".",".",".",".",".",".",".",".","."],[".",".",".",".",".",".",".",".",".",".",".",".",".",".",".",".","_",".",".",".",".",".",".",".",".",".",".",".",".","."],[".",".",".",".",".",".",".",".",".",".",".",".",".",".",".",".","_",".",".",".",".",".",".",".",".",".",".",".",".","."],[2,".",2,2,2,".",0,2,".",2,2,3,2,".",".",2,"_",2,2,2,".",3,2,".",2,2,".",".",".","."],[0,".",0,0,0,4,".",0,".",0,0,3,3,4,1,0,"_",0,0,0,7,".",0,".",0,0,8,7,5,4]],[[".",".",".",".",".",".",".",".",".",".",".",".",".",".",".",".",".",".",".",".",".",".",".",".",".",".",".",".",".","."],[".",".",".",".",".",".",".",".",".",".",".",".",".",".",".",".",".",".",".",".",".",".",".",".",".",".",".",".",".","."],[".",".",".",".",".",".",".",".",".",".",".",".",".",".",".",".",".",".",".",".",".",".",".",".",".",".",".",".",".","."],[".",".",".",".",".",".",".",".",".",".",".",".",".",".",".",".",3,3,3,3,".",".",".",".",".",".",".",".",".","."],[2,".",".",2,2,2,2,2,2,2,2,2,2,2,2,2,2,2,2,2,2,".",2,2,2,2,3,".",".",6],[0,".",".",0,0,0,0,0,0,0,0,0,0,0,0,0,1,1,1,1,0,".",0,0,0,0,1,".",".",4]],[["_"],["_"],["_"],["_"],["_"],["_"]],[[".",".",".",".",".",".",".",".",".",".",".",".",".",".",".",".",".",".",".",".",".",".",".",".",".",".",".",".",".",".",".",".",".",".",".",".",".",".",".",".",".",".",".",".",".",".",".",".",".",".",".",".",".",".",".",".",".",".",".",".",".",".",".",".",".",".",".",".",".","_",".",".",".",".",".",".",".","."],[".",".",".",".",".",".",".",".",".",".",".",".",".",".",".",".",".",".",".",".",".",".",".",".",".",".",".",".",".",".",".",".",".",".",".",".",".",".",".",".",".",".",".",".",".",".",".",".",".",".",".",".",".",".",".",".",".",".",".",".",".",".",".",".",".",".",".",".",".","_",".",".",".",".",".",".",".","."],[".",".",".",".",".",".",".",".",".",".",".",".",".",".",".",".",".",".",".",".",".",".",".",".",".",".",".",".",".",".",".",".",".",".",".",".",".",".",".",".",".",".",".",".",".",".",".",".",".",".",".",".",".",".",".",".",".",".",".",".",".",".",".",".",".",".",".",".",".","_",".",".",".",".",".",".",".","."],[2,".",".",".",".",".",".",".",".",".",".",".",".",".",".",".",".",".",".",".",".",".",".",".",".",".",".",".",".",".",".",".",".",".",".",".",".",".",".",".",".",".",".",".",".",".",".",".",".",".",".",".",".",".",".",".",".",".",".",".",".",".",".",".",".",".",".",".",".","_",".",".",".",".",".",".",".","."],[0,".",0,0,0,0,0,0,0,0,0,0,0,0,7,7,7,7,5,5,5,5,3,3,3,3,2,3,5,".",".",".",".",".",".",".",".",".",".",".",".",".",".",".",".",".",".",".",".",".",".",".",".",5,5,5,5,3,3,3,3,2,2,2,2,3,2,3,"h",".",2,"p",".",".",".",".",".","."],[".",".",".",".",".",".",".",".",".",".",".",".",".",".",".",".",".",".",".",".",".",".",".",".",".",".",".",".",".",3,"r",".",3,3,3,3,3,3,3,3,3,3,3,3,3,3,3,3,3,3,3,3,3,".",".",".",".",".",".",".",".",".",".",".",".",".",".",".",".","_",".",".",".",5,3,5,".","."]],[[".",".",".",".",".",".",".",".",".",".",".",".",".",".",".",".",".",".",".",".",".",".",".",".",".",".",".",".",".",".",".",".",".",".",".",".",".",".",".",".",".",".",".",".",".",".",".",".",".",".",".",".",".",".",".",".",".",".",".",".","."],[".",".",".",".",".",".",".",".",".",".",".",".",".",".",".",".",".",".",".",".",".",".",".",".",".",".",".",".",".",".",".",".",".",".",".",".",".",".",".",".",".",".",".",".",".",".",".",".",".",".",".",".",".",".",".",".",".",".",".",".","."],[".",".",".",".",".",".",".",".",".",".",".",".",".",".",".",".",".",".",".",".",".",".",".",".",".",".",".",".",".",".",".",".",".",".",".",".",".",".",".",".",".",".",".",".",".",".",".",".",".",".",".",".",".",".",".",".",".",".",".",".","."],[2,".",".",".",".",".",".",".",".",".",".",".",".",".",".",".",".",".",".",".",".",".",".",".",".",".",".",".",".",".",".",".",".",".",".",".",".",".",".",".",".",".",".",".",".",".",".",".",".",".",".",".",".",".",".",".",".",".",".",".","."],[0,".",0,0,0,0,0,0,0,0,0,0,0,0,7,7,7,7,5,5,5,5,8,8,8,8,8,7,7,5,5,3,3,5,".",".",".",".",".",".",".",".",".",".",".",".",".",".",".",".",".",".",".",".",".",3,2,".",3,2,"."],[".",".",".",".",".",".",".",".",".",".",".",".",".",".",".",".",".",".",".",".",".",".",".",".",".",".",".",".",".",".",".",".",".",3,".",3,3,3,3,3,3,3,3,3,3,3,3,3,3,3,3,3,3,3,".",".",".",3,".",".",3]],[[".",".",".",".",".",0,".",".",".",7,".",".",".",8,".",".",".",".",".",".",".",".",".",".",".",".","_",".",".",".",".",".",".",".",".",".",".",".",".",0,".",".",".",7,".",".",".",8,".",".",".",".",".",".",".",".",".",".",".",".",".",".",".",".",".",".",".",".",".",".",".",".",".",".",".",".",".",".",".",".",".",".",".",".",".",".",".",".",".",".","."],[".",".",".",".",".",".",0,".",".",".",0,".",".",".",0,".",".",".",".",".",".",".",".",".",".",".","_",".",".",".",".",".",".",".",".",".",".",".",".",".",0,".",".",".",0,".",".",".",0,".",".",".",".",".",".",".",".",".",".",".",".",".",".",".",".",".",".",".",".",".",".",".",".",".",".",".",".",".",".",".",".",".",".",".",".",".",".",".",".",".","."],[".",".",".",".",5,".",".",5,".",".",".",5,".",".",".",5,".",".",".",".",".",0,".",".",".",".","_",".",".",0,".",".",".",".",".",".",".",".",5,".",".",5,".",".",".",5,".",".",".",5,".",5,".",7,9,"/",".",".",".",".",".",".",".",".",".",".",".",".",".",".",".",".",".",".",".",".",".",".",".",".",".",".",".",".",".",".",".",".",".",".","."],[2,".",7,"/",".",".",".",".",7,".",".",".",7,".",".",".",7,".",".",2,".",".",2,".",2,".","_",5,".",".",5,".",5,".",2,".",7,"/",".",".",".",".",7,".",".",".",7,".",".",".",7,5,".",7,9,"/",".",".",".",".",".",2,".",".",".",".",".",".",".",2,2,2,2,2,2,2,2,2,".",".",".",".",".",".",".",".",".",".",".",".","."],[0,".",".",".",".",".",".",".",".",".",".",".",".",".",".",".",".",".",2,".",2,".",".",2,".",".",5,".",5,".",".",5,".",".",0,".",".",".",".",".",".",".",".",".",".",".",".",".",".",".",".",3,".",5,7,"/",".",3,".",5,".",0,".",".",".",".",".",".",".",0,0,0,0,0,0,0,0,0,".",".",".",".",".",".",".",".",".",".",".",".","."],[".",".",".",".",".",".",".",".",".",".",".",".",".",".",".",".",".",0,".",".",".",".",".",".",".",3,"_",".",".",".",".",".",".",".",".",".",".",".",".",".",".",".",".",".",".",".",".",".",".",".",".",3,".",5,7,"/",".",1,".",3,".",".",".",".",".",".",".",".",".",".",".",".",".",".",".",".",".",".",".",".",".",".",".",".",".",".",".",".",".",".","."]],[[".",".",".",".",0,".",".",".",7,".",".",".",8,".",".",".",".",".",".",".",".",".",".",".",".",".",".",".",".",".",".",".",".",0,".",".",".",7,".",".",".",8,".",".",".",".",".",".",".",".",".",".",".",".",".",".",".",".",".",".",".",".",".","."],[".",".",".",0,".",0,".",".",".",0,".",".",".",0,".",".",".",".",".",".",".",".",".",".",".",".",".",".",".",".",".",".",".",".",0,".",".",".",0,".",".",".",0,".",".",".",".",".",".",".",".",".",".",".",".",".",".",".",".",".",".",".",".","."],[".",".",5,".",".",".",5,".",".",".",5,".",".",".",5,".",".",".",".",".",".",".",".",".",".",".",".",".",".",".",".",".",".",".",".",5,".",".",".",5,".",".",".",5,".",".",".",".",".",".",".",".",0,".",".",".",".",".",".",".",0,".",".","."],[".",7,".",".",".",".",".",7,".",".",".",7,".",".",".",7,7,".",".",".",7,".",".",".",5,".",".",".",5,".",".",".",".",".",".",".",7,".",".",".",7,".",".",".",7,".",".",".",".",".",3,".",".",3,".",3,".",".",5,".",".",5,".",5],[0,".",".",".",".",".",".",".",".",".",".",".",".",".",".",".",".",8,".",8,".",8,".",8,".",7,".",7,".",7,".",7,0,".",".",".",".",".",".",".",".",".",".",".",".",".",".",".",".",3,".",3,".",".",3,".",".",5,".",5,".",".",5,"."],[".",".",".",".",".",".",".",".",".",".",".",".",".",".",".",".",".",".",10,".",".",".",10,".",".",".",8,".",".",".",7,".",".",".",".",".",".",".",".",".",".",".",".",".",".",8,"\\",".",1,".",".",".",".",".",".",".",3,".",".",".",".",".",".","."]],[[".",".",".",".",".",".",".",".",".",".",".",".",".",".",".",".",".","."],[".",".",".",".",".",".",".",".",".",".",".",".",".",".",".",".",".","."],[".",".",".",".",".",".",".",".",".",".",".",".",".",".",".",".",".","."],[".",".",".",".",".",".",".",".",".",".",".",".",".",".",".",".",".","."],[3,3,3,3,3,3,3,3,5,5,5,5,5,5,2,5,".","."],[1,1,1,1,1,1,1,1,3,3,3,3,3,3,0,3,".","."]],[[".",".",".",".",".",".",".",".",".",".",".",".",".",".",".",".",".",".",".",".",".",".",".",".",".",".",".",".",".",".","."],[".",".",".",".",".",".",".",".",".",".",".",".",".",".",".",".",".",".",".",".",".",".",".",".",".",".",".",".",".",".","."],[".",".",9,"/",".",9,9,9,7,7,7,7,10,10,10,9,".",".",".",".",".",10,10,10,10,"\\",".",9,"\\",".",7],[2,".",7,"/",".",7,7,7,7,7,7,7,7,7,7,7,".",".",".",".",".",".",".",".",".",".",".",".",".",".","."],[0,".",".",".",".",".",".",".",".",".",".",".",".",".",".",".",2,".",2,".",".",8,8,8,8,"\\",".",7,"\\",".",5],[".",".",".",".",".",".",".",".",".",".",".",".",".",".",".",".",0,".",0,".",".",".",".",".",".",".",".",".",".",".","."]],[[".",".",".",".",".",".",".",".",".",".",".",".",".",".",".",".","."],[".",".",".",".",".",".",".",".",".",".",".",".",".",".",".",".","."],[".",".",".",".",".",".",".",".",".",".",".",".",".",".",".",".","."],[".",".",".",".",".",".",".",".",".",".",".",".",".",".",".",".",2],[3,3,3,3,3,3,3,3,2,2,2,2,2,2,2,2,0],[1,1,1,1,1,1,1,1,4,4,4,4,4,4,0,4,"."]]],"numberofstrings":6,"notes":["D","A","F","C","G","D"],"capo":0,"stringnotes":["D3","A2","F2","C2","G1","D1"],"comments":["Intro: Repeat 2x","Verse #1 Repeat 2x","ALT Verse #1","Chorus #1 Repeat 2x","Bridge #1 Repeat 2x","Verse #2 Repeat 2x","ALT Verse #2","Short Heavy Part","Chorus #2","Bridge #2 (Before Solo)","","Solo","Clean Riff Repeat 2x","Final Chorus Build","Final Chorus Repeat 4x","Ending Build"],"timing":[[null,"S","S","S","S","S","S","S","S","S","S","S","S","S","S","S","S","S","S","S","S","S","S","S","S","S","S",null,"S","S","S","S","S","S"],[null,null,"S","S","S","S","S","S","S","S","S","S","S","S","S","S",null,"S","S","S",null,"S","S","S","S",null,null,"S","S","S","S","S","S","S","S","S",null,null,"S","S","S","S","S","S","S","S"],[null,"S","S","S","S","S","S","S","S",null,"S","S",null,"S","S","S","S",null,"S","S","S",null,"S","S",null,"S","S","S","S","S","S","S",null,"S","S","S","S","S","S",null,"S","S","S","S","S","S","S",null,"S","S","S","S","S","S",null,"S","S","S","S","S","S"],[null,"S",null,"S","S","S","S",null,"S",null,"S","S","S","S","S",null,"S","S","S",null,"S","S","S","S","S","S","S",null,"S","S","S","S","S","S","S","S","S","S",null,"S","S","S","S","S","S","S","S","S","S"],[null,"W",null,"W","W","W","W","W","W","W","W","W","W","W","W","W",null,null,null,null,null,null,null,null,null,null,"W","W","W","W",null,"W","W","W","W","W","W","W","W","W","W","W","W","W","W","W","W","W","W","W","W","W","W","W","W","W","W","W","W","W","W","W","W","W","W"],[null,"W",null,"W","W","W","W","W","W","W","W","W","W",null,"W","W","W",null,"W","W","W","W","W","W","W","W","W",null,"W","W","W","W","W","W","W","W","W",null,null,"W","W","W","W","W","W","W","W"],[null,"W",null,"W","W","W","W","W","W",null,"W","W","W","W","W","W","W",null,"W","W","W","W","W",null,"W","W","W","W","W","W",null,null,"W"],[null,"W",null,null,"W","W","W","W","W","W","W","W","W","W","W","W","W","W","W","W","W","W","W",null,"W","W","W","W",null,null,"W"],[],[null,"W","W","W","W","W","W","W","W","W","W","W","W","W","W","W","W","W","W","W","W","W","W","W","W","W","W","W","W","W","W",null,"W","W","W","W","W","W","W","W","W","W","W","W","W",null,"W","W","W","W","W","W","W","W","W","W","W","W","W","W","W","W","W","W","W","W","W","W","W","W","W","W","W",null,"W","W","W","W"],[null,"W",null,"W","W","W","W","W","W","W","W","W","W","W","W","W","W","W","W","W","W","W","W","W","W","W","W","W","W","W","W","W","W","W","W",null,"W","W","W","W","W","W","W","W","W","W","W","W","W","W","W","W",null,"W","W",null,"W","W","W","W","W","W"],[null,"W",null,"W",null,"W","W","W","W","W","W","W","W","W","W","W","W","W","W","W","W","W","W","W","W","W",null,null,null,null,null,null,null,null,null,null,null,null,null,null,null,null,null,null,null,null,null,null,null,null,null,null,null,null,null,null,null,null,null,null,null,null,null,null,null,null,null,null,null,null,null,null,null,null,null,null,null,null,null,null,null,null,null,null,null,null,null,null,null,null,null,"W","W"],[null,null,"W","W","W","W","W","W","W","W","W","W","W","W","W","W","W","W","W","W","W","W","W","W","W","W","W","W","W","W","W","W","W","W","W","W","W","W","W","W","W","W","W","W","W","W","W",null,null,"W","W","W","W","W","W","W","W","W","W","W","W","W","W","W","W"],[null,"W","W","W","W","W","W","W","W","W","W","W","W","W","W","W","W","W","W"],[null,"W",null,"W",null,"W","W","W","W","W","W","W","W","W","W","W","W","W","W","W",null,null,"W","W","W","W",null,null,"W",null,null,"W"],[null,"W","W","W","W","W","W","W","W","W","W","W","W","W","W","W","W","W"]],"timingvisible":false,"tabcounter":17,"stave":15,"totalstaves":16,"instrument":"6guitar","selectedtuning":"Full Step Down","version":"13"}

Member for

7 months 3 weeks
Submitted by treyhu2014 on Wed, 2020-05-06 17:39