Sound will begin in 5 seconds

acoustapick

01234567891011121314151617181920212223
E
B
G
D
A
E
B
0 1 2 3 4 5 6 7 8 9 10 11 12 13 14 15 16 17 18 19 20 21 22 23
(/) Slide Up  (\) Slide Down  (h) Hammer On  (p) Pull Off  (b) Bend (r) Release (v) Vibrato

Stave 1:

D|--------------------------------------------------------------------------
B|-----------3-----------------3-----------------3--------------------------
G|--------2-----2-----------2-----2-----------2-----2-----------2--------2--
D|-----0-----------0-----0-----------0-----0-----------0-----0--------0-----
A|--2-----------------2-----------------2-----------------2--------0--------
D|--------------------------------------------------------------------------

Stave 2:

D|--------------------------------------------------------------------------
B|-----------0-----------------0-----------------0--------------------------
G|--------2-----2-----------2-----2-----------2-----2-----------2--------6--
D|-----0-----------0-----0-----------0-----0-----------0-----0--------0-----
A|--------------------------------------------------------------------------
D|--2-----------------2-----------------2-----------------2--------0--------

Stave 3:

D|--------------------------------------------------------------------------
B|-----------5-----------------5-----------------7-----------------7--------
G|--------7-----7-----------7-----7-----------9-----9-----------9-----9-----
D|-----0-----------0-----0-----------0-----0-----------0-----0-----------0--
A|--7-----------------7-----------------9-----------------9-----------------
D|--------------------------------------------------------------------------

Stave 4:

D|----------------------------------------------------------------
B|-------------8--------------------8---------8---------8---------
G|---------11-----11------------11-----11--------11--------11-----
D|------0-------------0------0-------------0---------0---------0--
A|--10-------------------10---------------------------------------
D|----------------------------------------------------------------

http://www.guitartabcreator.com
Guitar Tab Creator is intended to store guitar tab created through the tool. It currently does not support in-line text editing. Any text you place in here will be lost. If you need to comment on your tab, please use the "Tab Notes" section located below.