Grateful Dead - When Push Comes to Shove - 1987-03-26 Lead

01234567891011121314151617181920212223
E
B
G
D
A
E
B
0 1 2 3 4 5 6 7 8 9 10 11 12 13 14 15 16 17 18 19 20 21 22 23
(/) Slide Up  (\) Slide Down  (h) Hammer On  (p) Pull Off  (b) Bend (r) Release (v) Vibrato

Stave 1:

E|------------------10--10------10------10--10-------------
B|----------10--12----------12------12----------13p12--10--
G|--10--11-------------------------------------------------
D|---------------------------------------------------------
A|---------------------------------------------------------
E|---------------------------------------------------------

Stave 2:

E|------------------------10--10------10-----------------------------
B|----------------10--12----------12------12-------------------------
G|--------10--11------------------------------9b11--9b11--9p7-----7--
D|-------------------------------------------------------------9-----
A|-------------------------------------------------------------------
E|-------------------------------------------------------------------

Stave 3:

E|------------------10--10--10--10--10--10--------------
B|----------10--12--------------------------13--12--10--
G|--10--11----------------------------------------------
D|------------------------------------------------------
A|------------------------------------------------------
E|------------------------------------------------------

Stave 4:

E|----------------------------10------12------13------14--
B|-------10-----------------------------------------------
G|--7b9------7b9--7--5--9/11------12------13------14------
D|--------------------------------------------------------
A|--------------------------------------------------------
E|--------------------------------------------------------

Stave 5:

E|---------15------15--14p12p10---------12----------------
B|-------------------------------12b14------12b14r12--10--
G|--14/16------16-----------------------------------------
D|--------------------------------------------------------
A|--------------------------------------------------------
E|--------------------------------------------------------

Stave 6:

E|-------------10-----10------------------------------------
B|--10p8p7-----------------------15--17b19--17--15------15--
G|----------7------7------14/16---------------------16------
D|----------------------------------------------------------
A|----------------------------------------------------------
E|----------------------------------------------------------

Stave 7:

E|----------------------------------------------------------------------------
B|--13/15--15--13p12------15--15--13p12------------10--10------------------7--
G|--------------------14-----------------14--9/11----------9/11--11--9--7--7--
D|-------------------------------------------------------------------------7--
A|----------------------------------------------------------------------------
E|----------------------------------------------------------------------------

Stave 8:

E|-----------------------------17-------------
B|--15--15------15------17b19------19r17--15--
G|----------16------16------------------------
D|--------------------------------------------
A|--------------------------------------------
E|--------------------------------------------

Stave 9:

E|--------------------------------------------------------------
B|--15--15--13p12------15--15--13p12----------------------------
G|-----------------14-----------------14---------14-------------
D|----------------------------------------14/16------16p14------
A|----------------------------------------------------------17--
E|--------------------------------------------------------------

Stave 10:

E|---------------------------------------------------------19--17------
B|------------------15--15--------------15------15--17/19----------19--
G|----------14--16--------------14--16------16-------------------------
D|--14--16------------------16-----------------------------------------
A|---------------------------------------------------------------------
E|---------------------------------------------------------------------

Stave 11:

E|------17--17-------------19b21--19b21r19--17----------------------
B|--19----------19p17---------------------------19------------------
G|---------------------19---------------------------19--18--17--16--
D|------------------------------------------------------------------
A|------------------------------------------------------------------
E|------------------------------------------------------------------

Stave 12:

E|---------------------------------------------17--
B|------15--17b19--17--16--15--14------14--17------
G|--16-----------------------------14--------------
D|-------------------------------------------------
A|-------------------------------------------------
E|-------------------------------------------------

Stave 13:

E|----------------------------------------17--16--15--13--13------
B|------15--17--17b19--19r17--15--17--15----------------------15--
G|--16------------------------------------------------------------
D|----------------------------------------------------------------
A|----------------------------------------------------------------
E|----------------------------------------------------------------

Stave 14:

E|----------------------------------------------------------------------
B|--17b19--19--19--19r17--15-------------------------12-----------------
G|----------------------------16b18--14--13--12--11------10h11--11------
D|------------------------------------------------------------------12--
A|----------------------------------------------------------------------
E|----------------------------------------------------------------------

Stave 15:

E|------------------------------------
B|----7--7-----7-------7--7-----------
G|----7--7-----7-------7--7-----------
D|--5-7--7-----7-----5-7--7-----------
A|--3/5--5-----5-----3/5--5-----------
E|----------7-----7----------7--5--7--

Stave 16:

E|-----------------------------------------
B|-----7-------6-------5-------3--3--2--0--
G|--------------------------------------1--
D|--7-----7\6-----6\5-----5\4-----4--3--0--
A|-----------------------------------------
E|-----------------------------------------

Stave 17:

E|---------------------------------
B|--5b7r5--3--5--3-----------3--3--
G|------------------4--2--4--------
D|---------------------------------
A|---------------------------------
E|---------------------------------

							http://www.guitartabcreator.com
Chords

Instruments
{"strings":[[[".",".",".",".",10,10,".",10,".",10,10,".",".",".","."],[".",".",10,12,".",".",12,".",12,".",".",13,"p",12,10],[10,11,".",".",".",".",".",".",".",".",".",".",".",".","."],[".",".",".",".",".",".",".",".",".",".",".",".",".",".","."],[".",".",".",".",".",".",".",".",".",".",".",".",".",".","."],[".",".",".",".",".",".",".",".",".",".",".",".",".",".","."]],[["_","_",".",".",".",".",10,10,".",10,".",".",".",".",".",".",".",".",".",".",".","."],["_","_",".",".",10,12,".",".",12,".",12,".",".",".",".",".",".",".",".",".",".","."],["_","_",10,11,".",".",".",".",".",".",".",9,"b",11,9,"b",11,9,"p",7,".",7],["_","_",".",".",".",".",".",".",".",".",".",".",".",".",".",".",".",".",".",".",9,"."],["_","_",".",".",".",".",".",".",".",".",".",".",".",".",".",".",".",".",".",".",".","."],["_","_",".",".",".",".",".",".",".",".",".",".",".",".",".",".",".",".",".",".",".","."]],[[".",".",".",".",10,10,10,10,10,10,".",".","."],[".",".",10,12,".",".",".",".",".",".",13,12,10],[10,11,".",".",".",".",".",".",".",".",".",".","."],[".",".",".",".",".",".",".",".",".",".",".",".","."],[".",".",".",".",".",".",".",".",".",".",".",".","."],[".",".",".",".",".",".",".",".",".",".",".",".","."]],[[".",".",".",".",".",".",".",".",".",".",".",".",10,".",12,".",13,".",14],[".",".",".",10,".",".",".",".",".",".",".",".",".",".",".",".",".",".","."],[7,"b",9,".",7,"b",9,7,5,9,"/",11,".",12,".",13,".",14,"."],[".",".",".",".",".",".",".",".",".",".",".",".",".",".",".",".",".",".","."],[".",".",".",".",".",".",".",".",".",".",".",".",".",".",".",".",".",".","."],[".",".",".",".",".",".",".",".",".",".",".",".",".",".",".",".",".",".","."]],[[".",".",".",15,".",15,14,"p",12,"p",10,".",".",".",12,".",".",".",".",".","."],[".",".",".",".",".",".",".",".",".",".",".",12,"b",14,".",12,"b",14,"r",12,10],[14,"/",16,".",16,".",".",".",".",".",".",".",".",".",".",".",".",".",".",".","."],[".",".",".",".",".",".",".",".",".",".",".",".",".",".",".",".",".",".",".",".","."],[".",".",".",".",".",".",".",".",".",".",".",".",".",".",".",".",".",".",".",".","."],[".",".",".",".",".",".",".",".",".",".",".",".",".",".",".",".",".",".",".",".","."]],[[".",".",".",".",".",".",10,".",10,".",".",".",".",".",".",".",".",".",".","."],[10,"p",8,"p",7,".",".",".",".",".",".",".",15,17,"b",19,17,15,".",15],[".",".",".",".",".",7,".",7,".",14,"/",16,".",".",".",".",".",".",16,"."],[".",".",".",".",".",".",".",".",".",".",".",".",".",".",".",".",".",".",".","."],[".",".",".",".",".",".",".",".",".",".",".",".",".",".",".",".",".",".",".","."],[".",".",".",".",".",".",".",".",".",".",".",".",".",".",".",".",".",".",".","."]],[[".",".",".",".",".",".",".",".",".",".",".",".",".",".",".",".",".",".",".",".",".",".",".",".",".","."],[13,"/",15,15,13,"p",12,".",15,15,13,"p",12,".",".",".",".",10,10,".",".",".",".",".",".",7],[".",".",".",".",".",".",".",14,".",".",".",".",".",14,9,"/",11,".",".",9,"/",11,11,9,7,7],[".",".",".",".",".",".",".",".",".",".",".",".",".",".",".",".",".",".",".",".",".",".",".",".",".",7],[".",".",".",".",".",".",".",".",".",".",".",".",".",".",".",".",".",".",".",".",".",".",".",".",".","."],[".",".",".",".",".",".",".",".",".",".",".",".",".",".",".",".",".",".",".",".",".",".",".",".",".","."]],[[".",".",".",".",".",".",".",".",17,".",".",".","."],[15,15,".",15,".",17,"b",19,".",19,"r",17,15],[".",".",16,".",16,".",".",".",".",".",".",".","."],[".",".",".",".",".",".",".",".",".",".",".",".","."],[".",".",".",".",".",".",".",".",".",".",".",".","."],[".",".",".",".",".",".",".",".",".",".",".",".","."]],[[".",".",".",".",".",".",".",".",".",".",".",".",".",".",".",".",".",".",".","."],[15,15,13,"p",12,".",15,15,13,"p",12,".",".",".",".",".",".",".",".","."],[".",".",".",".",".",14,".",".",".",".",".",14,".",".",".",14,".",".",".","."],[".",".",".",".",".",".",".",".",".",".",".",".",14,"/",16,".",16,"p",14,"."],[".",".",".",".",".",".",".",".",".",".",".",".",".",".",".",".",".",".",".",17],[".",".",".",".",".",".",".",".",".",".",".",".",".",".",".",".",".",".",".","."]],[[".",".",".",".",".",".",".",".",".",".",".",".",".",".",".",19,17,"."],[".",".",".",".",15,15,".",".",".",15,".",15,17,"/",19,".",".",19],[".",".",14,16,".",".",".",14,16,".",16,".",".",".",".",".",".","."],[14,16,".",".",".",".",16,".",".",".",".",".",".",".",".",".",".","."],[".",".",".",".",".",".",".",".",".",".",".",".",".",".",".",".",".","."],[".",".",".",".",".",".",".",".",".",".",".",".",".",".",".",".",".","."]],[[".",17,17,".",".",".",".",19,"b",21,19,"b",21,"r",19,17,".",".",".",".","."],[19,".",".",19,"p",17,".",".",".",".",".",".",".",".",".",".",19,".",".",".","."],[".",".",".",".",".",".",19,".",".",".",".",".",".",".",".",".",".",19,18,17,16],[".",".",".",".",".",".",".",".",".",".",".",".",".",".",".",".",".",".",".",".","."],[".",".",".",".",".",".",".",".",".",".",".",".",".",".",".",".",".",".",".",".","."],[".",".",".",".",".",".",".",".",".",".",".",".",".",".",".",".",".",".",".",".","."]],[[".",".",".",".",".",".",".",".",".",".",".",".",17],[".",15,17,"b",19,17,16,15,14,".",14,17,"."],[16,".",".",".",".",".",".",".",".",14,".",".","."],[".",".",".",".",".",".",".",".",".",".",".",".","."],[".",".",".",".",".",".",".",".",".",".",".",".","."],[".",".",".",".",".",".",".",".",".",".",".",".","."]],[[".",".",".",".",".",".",".",".",".",".",".",".",17,16,15,13,13,"."],[".",15,17,17,"b",19,19,"r",17,15,17,15,".",".",".",".",".",15],[16,".",".",".",".",".",".",".",".",".",".",".",".",".",".",".",".","."],[".",".",".",".",".",".",".",".",".",".",".",".",".",".",".",".",".","."],[".",".",".",".",".",".",".",".",".",".",".",".",".",".",".",".",".","."],[".",".",".",".",".",".",".",".",".",".",".",".",".",".",".",".",".","."]],[[".",".",".",".",".",".",".",".",".",".",".",".",".",".",".",".",".",".",".",".",".","."],[17,"b",19,19,19,19,"r",17,15,".",".",".",".",".",".",".",12,".",".",".",".","."],[".",".",".",".",".",".",".",".",".",16,"b",18,14,13,12,11,".",10,"h",11,11,"."],[".",".",".",".",".",".",".",".",".",".",".",".",".",".",".",".",".",".",".",".",".",12],[".",".",".",".",".",".",".",".",".",".",".",".",".",".",".",".",".",".",".",".",".","."],[".",".",".",".",".",".",".",".",".",".",".",".",".",".",".",".",".",".",".",".",".","."]],[[".",".",".",".",".",".",".",".",".",".",".",".",".","."],[".",".",7,7,".",7,".",".",".",7,7,".",".","."],[".",".",7,7,".",7,".",".",".",7,7,".",".","."],[5,".",7,7,".",7,".",5,".",7,7,".",".","."],[3,"/",5,5,".",5,".",3,"/",5,5,".",".","."],[".",".",".",".",7,".",7,".",".",".",".",7,5,7]],[[".",".",".",".",".",".",".",".",".",".",".",".",".",".",".",".","."],[".",7,".",".",".",6,".",".",".",5,".",".",".",3,3,2,0],[".",".",".",".",".",".",".",".",".",".",".",".",".",".",".",".",1],[7,".",7,"\\",6,".",6,"\\",5,".",5,"\\",4,".",4,3,0],[".",".",".",".",".",".",".",".",".",".",".",".",".",".",".",".","."],[".",".",".",".",".",".",".",".",".",".",".",".",".",".",".",".","."]],[[".",".",".",".",".",".",".",".",".",".",".",".","."],[5,"b",7,"r",5,3,5,3,".",".",".",3,3],[".",".",".",".",".",".",".",".",4,2,4,".","."],[".",".",".",".",".",".",".",".",".",".",".",".","."],[".",".",".",".",".",".",".",".",".",".",".",".","."],[".",".",".",".",".",".",".",".",".",".",".",".","."]]],"numberofstrings":6,"notes":["E","B","G","D","A","E","B"],"capo":0,"stringnotes":["E4","B3","G3","D3","A2","E2"],"comments":["Stave 1:","Stave 2:","Stave 3:","Stave 4:","Stave 5:","Stave 6:","Stave 7:","Stave 8:","Stave 9:","Stave 10:","Stave 11:","Stave 12:","Stave 13:","Stave 14:","Stave 15:","Stave 16:","Stave 17:","Stave 18:"],"timing":[["W","W","W","W","W","W","W","W","W","W","W","W","W","W","W"],["W","W","W","W","W","W","W","W","W","W","W","W","W","W","W","W","W","W","W","W","W","W","W"],["W","W","W","W","W","W","W","W","W","W","W","W","W"],["W","W","W","W","W","W","W","W","W","W","W","W","W","W","W","W","W","W","W","W","W","W","W","W","W","W","W","W","W",null,"W",null,"W","W",null,"W"],["W",null,"W","W","W","W","W",null,"W","W","W","W","W","W","W","W","W","W",null,"W","W"],["W","W","W","W","W","W","W","W","W","W",null,"W","W","W","W","W","W","W","W","W"],["W",null,"W","W","W",null,"W","W","W","W","W",null,"W","W","W",null,"W","W","W","W",null,"W","W","W","W","W","W","W"],["W","W","W","W","W","W",null,"W","W","W",null,"W","W"],["W","W","W",null,"W","W","W","W","W",null,"W","W","W",null,"W","W","W",null,"W","W"],["W","W","W","W","W","W","W","W","W","W","W","W","W","W","W","W","W","W"],["W","W","W","W",null,"W","W","W",null,"W","W",null,"W","W","W","W","W","W","W","W","W"],["W","W","W",null,"W","W","W","W","W","W","W","W","W"],["W","W","W","W","W","W","W",null,"W","W","W","W","W","W","W","W","W","W"],["W",null,"W","W","W","W",null,"W","W","W","W","W","W","W","W","W","W","W","W","W","W","W"],["W","W","W","W","W","W","W","W","W","W","W","W","W","W"],["W","W","W","W","W","W","W","W","W","W","W","W","W","W","W","W","W","W"],["W",null,"W",null,"W","W","W","W","W","W","W","W","W"],[]],"timingvisible":false,"tabcounter":16,"stave":15,"totalstaves":17,"instrument":"6guitar","selectedtuning":"6_standard","version":"13"}

Member for

9 months 1 week
Submitted by treser62 on Wed, 2020-11-25 20:51