Sound will begin in 5 seconds

Mama You've Been On My Mind

Chords
01234567891011121314151617181920212223
E
B
G
D
A
E
B
0 1 2 3 4 5 6 7 8 9 10 11 12 13 14 15 16 17 18 19 20 21 22 23
(/) Slide Up  (\) Slide Down  (h) Hammer On  (p) Pull Off  (b) Bend (r) Release (v) Vibrato

Stave 1:

E|-------------------------------------------------------------------------------------------
B|--------1-----1--x--x--x-----1-----1-----3/5\3--1-------1-----1--x--x--x----------1--1--x--
G|--------0-----0--x--x--x-----0-----0---------------2p0--0-----0--x--x--x----------2--2--x--
D|--------2-----2--x--x--x-----2-----2--------------------2-----2--x--x--x----------3--3--x--
A|--3--0--3--0--3--x--x--x--0--3--0--3--0-----------------3--0--3--x--x--x----------3--3--x--
E|--3-----------------------------------------------------------------------3/5--1--1--1--x--

Stave 2:

E|-----------------------------------------------------------------------------------------
B|-----3--3--x-----5--5--5--3--x--x--x--x---x--x---x--x--x---x--x-----------1--1-----3--3--
G|-----4--4--x-----5--5--5--5--x--x--x--x---x--x---x--x--x---x--x-----------2--2-----4--4--
D|-----2--2--x-----------------x--5--7--10--7--10--5--7--10--7--10----------3--3-----2--2--
A|-----------------------------x--x--x--x---x--x---x--x--x---x--x-----------3--3-----------
E|--2--2--2--x--3--------------x--3--5--8---5--8---3--5--8---5--8---3/5--1--1--1--2--2--2--

Stave 3:

E|-------------------------------------------3--3-----------
B|-----5--5--5--3--3/5-----------7--------7--3--3-----------
G|-----5--5--5--5--3-5--5-----------5-----5--0--0--0--2--3--
D|-------------------------7-----------7--7--0--0-----------
A|----------------------------7--------------2--2-----------
E|--3----------------------------------------3--3-----------

http://www.guitartabcreator.com
Guitar Tab Creator is intended to store guitar tab created through the tool. It currently does not support in-line text editing. Any text you place in here will be lost. If you need to comment on your tab, please use the "Tab Notes" section located below.