TENNESSEE FLAT TOP BOX

Chords

01234567891011121314151617181920212223
E
B
G
D
A
E
B
0 1 2 3 4 5 6 7 8 9 10 11 12 13 14 15 16 17 18 19 20 21 22 23
(/) Slide Up  (\) Slide Down  (h) Hammer On  (p) Pull Off  (b) Bend (r) Release (v) Vibrato

Stave 1:

E|--------------------------------------------------------------------
B|--------------------------------------------------------------------
G|--------------------------------------------------2--2--------------
D|--------------0--------------0--------------0--4--------4--5--4--2--
A|--0--0--2--4-----0--0--2--4-----0--0--2--4--------------------------
E|--------------------------------------------------------------------

Stave 2:

E|------------------------------------------------------------------------------
B|----2----2--------------------------------------------------------------------
G|--1/2--1/2--2--2--0-----------------------------------------------------------
D|---------------------4--2--0-----------------0--------------0--------------0--
A|---------------------------------0--0--2--4-----0--0--2--4-----0--0--2--4-----
E|------------------------------------------------------------------------------

Stave 3:

E|-----------------------------------------------------------------------------
B|-------------------------2----2----------------------------------------------
G|-----2--2--------------1/2--1/2--2--2--2--0----------------------------------
D|--4--------4--5--4--2------------------------4--2--0-----------2h4p2h4p2-----
A|------------------------------------------------------4--2--0-------------0--
E|-----------------------------------------------------------------------------

							http://www.guitartabcreator.com
Instruments
{"strings":[[[".",".",".",".",".",".",".",".",".",".",".",".",".",".",".",".",".",".",".",".",".","."],[".",".",".",".",".",".",".",".",".",".",".",".",".",".",".",".",".",".",".",".",".","."],[".",".",".",".",".",".",".",".",".",".",".",".",".",".",".",".",2,2,".",".",".","."],[".",".",".",".",0,".",".",".",".",0,".",".",".",".",0,4,".",".",4,5,4,2],[0,0,2,4,".",0,0,2,4,".",0,0,2,4,".",".",".",".",".",".",".","."],[".",".",".",".",".",".",".",".",".",".",".",".",".",".",".",".",".",".",".",".",".","."]],[[".",".",".",".",".",".",".",".",".",".",".",".",".",".",".",".",".",".",".",".",".",".",".",".",".",".",".","."],[".",".",2,".",".",2,".",".",".",".",".",".",".",".",".",".",".",".",".",".",".",".",".",".",".",".",".","."],[1,"/",2,1,"/",2,2,2,0,".",".",".",".",".",".",".",".",".",".",".",".",".",".",".",".",".",".","."],[".",".",".",".",".",".",".",".",".",4,2,0,".",".",".",".",".",0,".",".",".",".",0,".",".",".",".",0],[".",".",".",".",".",".",".",".",".",".",".",".",".",0,0,2,4,".",0,0,2,4,".",0,0,2,4,"."],[".",".",".",".",".",".",".",".",".",".",".",".",".",".",".",".",".",".",".",".",".",".",".",".",".",".",".","."]],[[".",".",".",".",".",".",".",".",".",".",".",".",".",".",".",".",".",".",".",".",".",".",".",".",".",".",".",".",".",".",".",".","."],[".",".",".",".",".",".",".",".",".",2,".",".",2,".",".",".",".",".",".",".",".",".",".",".",".",".",".",".",".",".",".",".","."],[".",2,2,".",".",".",".",1,"/",2,1,"/",2,2,2,2,0,".",".",".",".",".",".",".",".",".",".",".",".",".",".",".","."],[4,".",".",4,5,4,2,".",".",".",".",".",".",".",".",".",".",4,2,0,".",".",".",2,"h",4,"p",2,"h",4,"p",2,"."],[".",".",".",".",".",".",".",".",".",".",".",".",".",".",".",".",".",".",".",".",4,2,0,".",".",".",".",".",".",".",".",".",0],[".",".",".",".",".",".",".",".",".",".",".",".",".",".",".",".",".",".",".",".",".",".",".",".",".",".",".",".",".",".",".",".","."]]],"numberofstrings":6,"notes":["E","B","G","D","A","E","B"],"capo":0,"stringnotes":["E4","B3","G3","D3","A2","E2"],"comments":["Stave 1:","Stave 2:","Stave 3:"],"timing":[["W","W","W","W","W","W","W","W","W","W","W","W","W","W","W","W","W","W","W","W","W","W"],[null,"W",null,"W","W",null,"W","W","W","W","W","W","W","W","W","W","W","W","W","W","W","W","W","W","W","W","W","W"],["W","W","W","W","W","W","W",null,"W",null,"W","W",null,"W","W","W","W","W","W","W","W","W","W","W","W",null,"W",null,"W",null,"W",null,"W","W"]],"timingvisible":false,"tabcounter":33,"stave":2,"totalstaves":3,"instrument":"6guitar","selectedtuning":"6_standard","version":"13"}

Member for

3 years 9 months
About Me
I am a non professional singer, song writer, musician, and guitar builder
Submitted by trap on Thu, 2020-05-28 16:39