Elmore James style guitar

Chords

01234567891011121314151617181920212223
E
B
G
D
A
E
B
0 1 2 3 4 5 6 7 8 9 10 11 12 13 14 15 16 17 18 19 20 21 22 23
(/) Slide Up  (\) Slide Down  (h) Hammer On  (p) Pull Off  (b) Bend (r) Release (v) Vibrato

Stave 1:

E|-------------------------------------------------------------------------------
B|-------------------------------------------------------------------------------
G|-------------------------------------------------------------------------------
D|--------------2--------------2--------------2--2--2--2--2--2h2--2--2--2--2--2--
A|--------2--4-----------2--4-----------2--4-------------------------------------
E|--0--4-----------0--4-----------0--4-------------------------------------------

Stave 2:

E|-----------------------------------------------12------0-----
B|---------------------------------------------------12--------
G|----------------------------------------------------------12b
D|--2--2--4--4--2-----------0--2--2--4--4--2-------------------
A|--0--0--0--0--0--0--3--4-----0--0--0--0--0-------------------
E|-------------------------------------------------------------

Stave 3:

E|-----------------9--8--7--------7--6--5--3--2--0--------0-----
B|--------------------------------------------------2--0--------
G|--------------------------------------------------------------
D|--------------------------------------------------------------
A|--2--2--4--4--------------------------------------------------
E|--0--0--0--0-----------------------------------------------0--

Stave 4:

E|---------------------------------0--------
B|------------------------------------------
G|----------------------------0h1-----------
D|--h2--2--2--0------------2----------------
A|---------------2--1p----------------------
E|--------------------3b0-------------------

							http://www.guitartabcreator.com
Tab Notes
After stave 1 play major F chord on the 12 fret slide in twice triplets. during rest of stave 2 1st string 10th fret and 2nd string 12th fret slide in triplets. During rest stave 3 bar 1st and 2nd string 7th fret and 3rd string 8th fret triplet. During next rest on stave 3 play 1st string 5th fret and 2nd string 7th fret slide in play 4 times then bar first 2 strings on 5th fret and 3rd string 6th fret play 3 times. During rest stave 4 play B7 chord strum twice
Instruments
{"strings":[[[".",".",".",".",".",".",".",".",".",".",".",".",".",".",".",".",".",".",".",".",".",".",".",".",".",".","."],[".",".",".",".",".",".",".",".",".",".",".",".",".",".",".",".",".",".",".",".",".",".",".",".",".",".","."],[".",".",".",".",".",".",".",".",".",".",".",".",".",".",".",".",".",".",".",".",".",".",".",".",".",".","."],[".",".",".",".",2,".",".",".",".",2,".",".",".",".",2,2,2,2,2,2,"h",2,2,2,2,2,2],[".",".",2,4,".",".",".",2,4,".",".",".",2,4,".",".",".",".",".",".",".",".",".",".",".",".","."],[0,4,".",".",".",0,4,".",".",".",0,4,".",".",".",".",".",".",".",".",".",".",".",".",".",".","."]],[[".",".",".",".",".",".",".",".",".",".",".",".",".",".","_",12,".",0,".","."],[".",".",".",".",".",".",".",".",".",".",".",".",".",".","_",".",12,".",".","."],[".",".",".",".",".",".",".",".",".",".",".",".",".",".","_",".",".",".",12,"b"],[2,2,4,4,2,".",".",".",0,2,2,4,4,2,"_",".",".",".",".","."],[0,0,0,0,0,0,3,4,".",0,0,0,0,0,"_",".",".",".",".","."],[".",".",".",".",".",".",".",".",".",".",".",".",".",".","_",".",".",".",".","."]],[[".",".",".",".",".",9,8,7,".",".",7,6,5,3,2,0,".",".",0,"."],[".",".",".",".",".",".",".",".",".",".",".",".",".",".",".",".",2,0,".","."],[".",".",".",".",".",".",".",".",".",".",".",".",".",".",".",".",".",".",".","."],[".",".",".",".",".",".",".",".",".",".",".",".",".",".",".",".",".",".",".","."],[2,2,4,4,".",".",".",".",".",".",".",".",".",".",".",".",".",".",".","."],[0,0,0,0,".",".",".",".",".",".",".",".",".",".",".",".",".",".",".",0]],[[".",".",".",".",".",".",".",".",".",".",".",".",".",".",".",0,".","."],[".",".",".",".",".",".",".",".",".",".",".",".",".",".",".",".",".","."],[".",".",".",".",".",".",".",".",".",".",".",".",0,"h",1,".",".","."],["h",2,2,2,0,".",".",".",".",".",".",2,".",".",".",".",".","."],[".",".",".",".",".",2,1,"p",".",".",".",".",".",".",".",".",".","."],[".",".",".",".",".",".",".",".",3,"b",0,".",".",".",".",".",".","."]]],"numberofstrings":6,"notes":["E","B","G","D","A","E","B"],"capo":0,"stringnotes":["E4","B3","G3","D3","A2","E2"],"comments":["Stave 1:","Stave 2:","Stave 3:","Stave 4:"],"timing":[["W","W","W","W","W","W","W","W","W","W","W","W","W","W","W","W","W","W","W","W",null,"W","W","W","W","W","W",null,"W","W","W","W","W","W"],[null,"W","W","W","W","W","W","W","W","W","W","W","W","W","W","W","W","W","W"],[null,"W","W","W","W",null,"W","W","W",null,"W","W","W","W","W","W","W","W","W","W"],[null,null,"W","W","W","W","W","W",null,null,"W","W","W","W",null,"W","W"]],"timingvisible":false,"tabcounter":18,"stave":3,"totalstaves":4,"instrument":"6guitar","selectedtuning":"6_standard","version":"13"}

Member for

3 years 8 months
About Me
I am a non professional singer, song writer, musician, and guitar builder
Submitted by trap on Thu, 2020-05-21 13:13