Sound will begin in 5 seconds

Here As In Heaven (B)

Chords
01234567891011121314151617181920212223
E
B
G
D
A
E
B
0 1 2 3 4 5 6 7 8 9 10 11 12 13 14 15 16 17 18 19 20 21 22 23
Song Science #1: How Pros Use 6 Chords to Write Hit Songs
(/) Slide Up  (\) Slide Down  (h) Hammer On  (p) Pull Off  (b) Bend (r) Release (v) Vibrato

Stave 1:

E|--------------------------
B|--------------------------
G|--4--3--------4--3--------
D|--------4-----------4-----
A|-----------6-----------6--
E|--------------------------

Stave 2:

E|--------------------------------
B|--------------4-----------------
G|--1--------------------------4--
D|--------------------------------
A|--------------2-----------------
E|--0--------------------------4--

Stave 3:

E|--7--------7--------6--
B|--9--------9--------7--
G|-----------8--------6--
D|--9--------9--------8--
A|-----------------------
E|-----------------------

Stave 4:

E|--------------------------------2--------------2-----
B|-----4--------4--------------------0--------------2--
G|--------1--------1-----------4--------------3--------
D|--4--------4-----------------------------------------
A|-----------------------------------------------------
E|-----------------------------------------------------

Stave 5:

E|----------------------------------------4----------------------------------------------------
B|--4-----------7--4----------4--------------4-------4-----------7--4----------4-------4-------
G|--------------------6b8-----------------------6b8--------------------6b8--------3b4-----3b4--
D|-----6--6----------------------6--6-------------------6--6-----------------------------------
A|---------------------------------------------------------------------------------------------
E|---------------------------------------------------------------------------------------------

http://www.guitartabcreator.com
Guitar Tab Creator is intended to store guitar tab created through the tool. It currently does not support in-line text editing. Any text you place in here will be lost. If you need to comment on your tab, please use the "Tab Notes" section located below.