Sound will begin in 5 seconds

Believe In Myself - Tails Theme

Chords
01234567891011121314151617181920212223
E
B
G
D
A
E
B
0 1 2 3 4 5 6 7 8 9 10 11 12 13 14 15 16 17 18 19 20 21 22 23
Song Science #1: How Pros Use 6 Chords to Write Hit Songs
(/) Slide Up  (\) Slide Down  (h) Hammer On  (p) Pull Off  (b) Bend (r) Release (v) Vibrato

Stave 1:

E|--------------------------------------------------------------------3-----------------------------
B|--------------------------------------------------------------------------------------------------
G|--------------------------------8-----------8-----------8-----------------------------------------
D|-----------------5--7--9-----9--------7--------5-----5--------4--------4-----------------5-----9--
A|-----------------------------------------------------------------------------5-----7--------7-----
E|--------------------------------------------------------------------------------------------------

Stave 2:

E|--------------------------------------------------------------------------------------------------------
B|--------------------------------8--------8-----10-----10--8--10---------------------6--5--10--8---------
G|-----9--7--5--5-----7-----9-----------7--------------------------10-----9-----7--5---------------10--9--
D|--------------------------------------------------------------------------------------------------------
A|--------------------------------------------------------------------------------------------------------
E|--------------------------------------------------------------------------------------------------------

Stave 3:

E|--------7--------------------------------------------------------------------------------------------
B|-----6-----------------------------------------------------------------------------------------------
G|--7--------------------------------------------------------------------------------------------------
D|-----------------------------------------------------------------------------------------------------
A|-----------------------------3--3--3--3--3--3--3--3--------------------------------------------------
E|-----------------------------------------------------0--0--0--0--0--0--0--0--1--1--1--1--1--1--1--1--

Stave 4:

E|----------------------------------------------------------------------------------------
B|----------------------------------------------------0-----------------------------------
G|--------------------------------9--------9-2-----2-----------------------3-----2--------
D|--------------------------------9--------9-2--2--------------------------3-----3--------
A|--------------------------------7-----7--7-0-----------------------1--1--1-----1-----2--
E|--4--4--4--4--4--4--4--4--0--0--------7-------------------------------------------------

Stave 5:

E|-----3-------------------------------------------------------------------------------------------
B|--------3----------------------------------------------------------------------------------------
G|-----------0--5-8--8-----------------------------------------------------------------------------
D|--------------5-8--8-----------------------------------------------------------------------------
A|--------------3-6--6-----3--3--3--3--3--3--3--3--------------------------------------------------
E|-------------------------------------------------0--0--0--0--0--0--0--0--1--1--1--1--1--1--1--1--

Stave 6:

E|---------------------------------------------------------------------------------------------------
B|---------------------------------------------------------------------------------------------------
G|--------------------------------9-2-----------0--------------------7--7-3--------------------------
D|--------------------------------9-2--------2-----------------------7--7-3--------------------------
A|--------------------------------7-0-----2--------------------5--5--5--5-1--------------------------
E|--4--4--4--4--4--4--4--4--0--0---------------------------------------------------------------------

Stave 7:

E|-----------------------------------------------------------------------------3----------------
B|-----------------------------------0-----0--1--0--------------------------------3-------------
G|--------------------------------2-----------------------7--------7--7--------------0----------
D|--------2--------2-----------2--------------------------7--------7--7-----------------5-3-----
A|--------2--------2-----0--------------------------5--5--5--5--5--5--5-----------------5-3-----
E|--0--0--0--0--0--0--0--------------------------------------------------3--------------3-1-----

Stave 8:

E|--------------------------------------------------------------------------1--------------------
B|-----------------------------------0-----0--1--0-----------1-----------------------1-----------
G|--------------------------------2-----------------------3-----------3-----------------------3--
D|--------2--------2-----------2-----------------------3-----------------------------------------
A|--------2--------2-----0--------------------------1--------------------------------------------
E|--0--0--0--0--0--0--0--------------------------------------------------------------------------

Stave 9:

E|--------------3--------------------------------------------------------------------------------------
B|--------------3--------------------------------------------------------------------------------------
G|--------------0--------------------------------------------------------------------3-----------------
D|--------------------------------5-----5--------------3--------2-----------3--------3-----------------
A|--2-----------------------------5-----5--------------3--------3-----------3-----1--1-----1--0--------
E|-----------------------------0--3-----3--------------1--------0-----------1--------------------3--1--

Stave 10:

E|--------3--------3--3------------------------------------------------------------------------------
B|--------3--------3--3-----------6-----6--5--5------------------------------------------------------
G|--------0--------0--0--5--------5-----5-----5-----10--10--10--9-----9--9--7-----7-5--5-3--3--2--2--
D|--------0--------0--0--5--------5-----5-----5-----0---0---0---0-----0--0--0-----0-0--0-0--0--2--2--
A|-----------------------3-----3--3--3--3-----3-----8---8---8---7-----7--7--5-----5-3--3-1--1--0--0--
E|--3------------------------------------------------------------------------------------------------

Stave 11:

E|--------------------------------------------------------------------------------------------------------
B|-----------------------------------5--------6--5--------------------------------------------------------
G|--------3-----3-----3--2--3--5--------5-----------5--------------------------3--------3-----------------
D|--------3-----3-----3--3--3--5-----------5-----------5--3--------2-----------3--------3-----------------
A|--1-----1-----1-----1--1--1--3--------------------------3--------3-----------1-----1--1-----1--0--3--1--
E|--------------------------------------------------------1--------0--------------------------------------

Stave 12:

E|--------3--------3--3------------------------------------------------------------------------------
B|--------3--------3--3-----------6-----6--5--5------------------------------------------------------
G|--------0--------0--0--5--------5-----5-----5-----10--10--10--9-----9--9--7-----7-5--5-3--3--2--2--
D|--------0--------0--0--5--------5-----5-----5-----0---0---0---0-----0--0--0-----0-0--0-0--0--2--2--
A|-----------------------3-----3--3--3--3-----3-----8---8---8---7-----7--7--5-----5-3--3-1--1--0--0--
E|--3------------------------------------------------------------------------------------------------

Stave 13:

E|-----------------------------------------------------------------------------------------------
B|--------------------------------------6--5--5--------------------------------------------------
G|--------3-----3-----3--2--3--5--------5-----5--------------------------------------------------
D|--------3-----3-----3--3--3--5--------5-----5-----3-----------------------------------5--5-10--
A|--1-----1-----1-----1--1--1--3-----3--3-----3-----3-----------------------------------5--5-10--
E|--------------------------------------------------1-----------------------------------3--3-8---

http://www.guitartabcreator.com
Guitar Tab Creator is intended to store guitar tab created through the tool. It currently does not support in-line text editing. Any text you place in here will be lost. If you need to comment on your tab, please use the "Tab Notes" section located below.