Sound will begin in 5 seconds

Intro

01234567891011121314151617181920212223
E
B
G
D
A
E
B
0 1 2 3 4 5 6 7 8 9 10 11 12 13 14 15 16 17 18 19 20 21 22 23
Song Science #1: How Pros Use 6 Chords to Write Hit Songs
(/) Slide Up  (\) Slide Down  (h) Hammer On  (p) Pull Off  (b) Bend (r) Release (v) Vibrato

Stave 1:

D|---------------------------------------------------------------------------------------------------------------
A|---------------------------------------------------------------------------------------------------------------
F|-------------------------------------------------------------------------------------------11------------------
C|--------12-----12---------11------9------11----------------------------------------11----------12--11--9--11v--
G|--9--9------9------9--12------12-----12------12--9--11------11------11-----------------12----------------------
C|--------------------------------------------------------12------12------12--9--11------------------------------

Stave 2:

D|-------------------------------------------------------------------------------------------------------------------------------------------------------------
A|-------------------------------------------------------------------------------------------------------------------------------------------------------------
F|-------------------------------------------------------------------------------------------------------------------------------------------------------------
C|----------------------------------7--7--------------------------------------6--6--------------------------7--7--------5--5--7--7--------------------6--6-----
G|--------------------9--9----------------9--9--------------------8--8--------------8--8--5--5--5--5--5--5--------8--8--------------4--4--4--4--4--4--------7--
C|--7--7--7--7--7--7--------10--10--------------6--6--6--6--6--6--------9--9-----------------------------------------------------------------------------------

Stave 3:

D|----------------------------------------------
A|----------------------------------------------
F|----------------------------------------------
C|--------4--4--6--6----------------------------
G|--7--7--------------7--7----------6--6--------
C|--------------------------10--10--------9--9--

Stave 4:

D|-----------------------------------------------
A|-----------------------------------------------
F|-----------------------------------------------
C|-----------------------------------------------
G|--------------4-----------------------2-----1--
C|--3--3--3--3-----3--3--3--3--4--1--3-----4-----

http://www.guitartabcreator.com
Guitar Tab Creator is intended to store guitar tab created through the tool. It currently does not support in-line text editing. Any text you place in here will be lost. If you need to comment on your tab, please use the "Tab Notes" section located below.