Skin Creeper

Chords

01234567891011121314151617181920212223
E
B
G
D
A
E
B
0 1 2 3 4 5 6 7 8 9 10 11 12 13 14 15 16 17 18 19 20 21 22 23
(/) Slide Up  (\) Slide Down  (h) Hammer On  (p) Pull Off  (b) Bend (r) Release (v) Vibrato

Stave 1:

E|-----------|--------------------------------------------------------------------------|--------------------------------------------------------
B|-----------|--------------------------------------------------------------------------|--------------------------------------------------------
G|-----------|--------------------------------------------------------------------------|--------------------------------------------------------
D|-----------|--------------------------------------------------------------------------|--------------------------------------------------------
A|--6--3-----|--------------------------------------------------------------------------|--5/6--6--6--6--6--6--6--6------------------------------
D|--------5--|--5--5--5--5--5--5--6--6--6--6--6--6--3--3--3--3--3--3--8--8--8--8--8--8--|----------------------------4/5--5--5--5--5--5--5--5--2/

Stave 2:

E|-------------------------------------------------------|--
B|-------------------------------------------------------|--
G|-------------------------------------------------------|--
D|-------------------------------------------------------|--
A|-----------------------------2/3--3--3--3--3--3--3--3--|--
D|-----3--3--3--3--3--3--3--3----------------------------|--

							http://www.guitartabcreator.com
Instruments
{"strings":[[[".",".",".","|",".",".",".",".",".",".",".",".",".",".",".",".",".",".",".",".",".",".",".",".",".",".",".",".","|",".",".",".",".",".",".",".",".",".",".",".",".",".",".",".",".",".",".",".",".",".","."],[".",".",".","|",".",".",".",".",".",".",".",".",".",".",".",".",".",".",".",".",".",".",".",".",".",".",".",".","|",".",".",".",".",".",".",".",".",".",".",".",".",".",".",".",".",".",".",".",".",".","."],[".",".",".","|",".",".",".",".",".",".",".",".",".",".",".",".",".",".",".",".",".",".",".",".",".",".",".",".","|",".",".",".",".",".",".",".",".",".",".",".",".",".",".",".",".",".",".",".",".",".","."],[".",".",".","|",".",".",".",".",".",".",".",".",".",".",".",".",".",".",".",".",".",".",".",".",".",".",".",".","|",".",".",".",".",".",".",".",".",".",".",".",".",".",".",".",".",".",".",".",".",".","."],[6,3,".","|",".",".",".",".",".",".",".",".",".",".",".",".",".",".",".",".",".",".",".",".",".",".",".",".","|",5,"/",6,6,6,6,6,6,6,6,".",".",".",".",".",".",".",".",".",".",".","."],[".",".",5,"|",5,5,5,5,5,5,6,6,6,6,6,6,3,3,3,3,3,3,8,8,8,8,8,8,"|",".",".",".",".",".",".",".",".",".",".",4,"/",5,5,5,5,5,5,5,5,2,"/"]],[["_",".",".",".",".",".",".",".",".",".",".",".",".",".",".",".",".",".",".","|"],["_",".",".",".",".",".",".",".",".",".",".",".",".",".",".",".",".",".",".","|"],["_",".",".",".",".",".",".",".",".",".",".",".",".",".",".",".",".",".",".","|"],["_",".",".",".",".",".",".",".",".",".",".",".",".",".",".",".",".",".",".","|"],["_",".",".",".",".",".",".",".",".",2,"/",3,3,3,3,3,3,3,3,"|"],["_",3,3,3,3,3,3,3,3,".",".",".",".",".",".",".",".",".",".","|"]]],"numberofstrings":6,"notes":["E","B","G","D","A","D"],"capo":0,"stringnotes":["E3","B2","G2","D2","A1","D1"],"comments":["Stave 1:","Stave 2:"],"timing":[[null,null,null,null,null,null,null,null,null,null,null,null,null,null,null,null,null,null,null,null,null,null,null,null,null,null,null,null,null,null,null,null,null,null,null,null,null,null,null,null,null,null,null,null,null,null,null,null,null,null],[null,"W","W","W","W","W","W","W","W","W",null,"W","W","W","W","W","W","W","W"]],"timingvisible":false,"tabcounter":20,"stave":1,"totalstaves":2,"instrument":"6guitar","selectedtuning":"Drop D","version":"13"}

Member for

1 month 2 weeks
Submitted by Tovamusic_ on Thu, 2020-10-15 02:52