windy

01234567891011121314151617181920212223
E
B
G
D
A
E
B
0 1 2 3 4 5 6 7 8 9 10 11 12 13 14 15 16 17 18 19 20 21 22 23
(/) Slide Up  (\) Slide Down  (h) Hammer On  (p) Pull Off  (b) Bend (r) Release (v) Vibrato

Stave 1:

E|-----------------------------------------------------------------------------------------------
B|-----------------------------------------------------------------------------------------------
G|-----------------------------------------------------------------------------------------------
D|--------0-----0--------------0-----0-----------------0-----0--3--0-----0--------------0-----0--
A|-----2-----4--------------2-----4-----------------2-----4-----------4--------------2-----4-----
E|--0--------------------0-----------------------0--------------------------------0--------------

Stave 2:

E|--------------------------------------------------------|--------------
B|--------------------------------------------------------|--------------
G|-----------3--------3-----3--4--3--3--------6--6--6--6--|--------------
D|--4--4--4--4--4--4--4--4--4--5--4--4--4-----7--7--7--7--|--------------
A|--4--4--4--4--4--4--4--4--4--5--4--4--4-----7--7--7--7--|--7--6--5--4--
E|--2--2--2--2--2--2--2--2--2--3--2--2--2-----5--5--5--5--|--5--4--3--2--

							http://www.guitartabcreator.com
Chords

Tab Notes

that bar symbol in the chorus is supposed to be a "xxxx" chord

 

Instruments
{"title":"windy","strings":[[[".",".",".",".",".","_","_",".",".",".",".",".","_","_","_",".",".",".",".",".",".",".",".",".","_","_",".",".",".",".","."],[".",".",".",".",".","_","_",".",".",".",".",".","_","_","_",".",".",".",".",".",".",".",".",".","_","_",".",".",".",".","."],[".",".",".",".",".","_","_",".",".",".",".",".","_","_","_",".",".",".",".",".",".",".",".",".","_","_",".",".",".",".","."],[".",".",0,".",0,"_","_",".",".",0,".",0,"_","_","_",".",".",0,".",0,3,0,".",0,"_","_",".",".",0,".",0],[".",2,".",4,".","_","_",".",2,".",4,".","_","_","_",".",2,".",4,".",".",".",4,".","_","_",".",2,".",4,"."],[0,".",".",".",".","_","_",0,".",".",".",".","_","_","_",0,".",".",".",".",".",".",".",".","_","_",0,".",".",".","."]],[[".",".",".",".",".",".",".",".",".",".",".",".",".","_",".",".",".",".","|",".",".",".","."],[".",".",".",".",".",".",".",".",".",".",".",".",".","_",".",".",".",".","|",".",".",".","."],[".",".",".",3,".",".",3,".",3,4,3,3,".","_",6,6,6,6,"|",".",".",".","."],[4,4,4,4,4,4,4,4,4,5,4,4,4,"_",7,7,7,7,"|",".",".",".","."],[4,4,4,4,4,4,4,4,4,5,4,4,4,"_",7,7,7,7,"|",7,6,5,4],[2,2,2,2,2,2,2,2,2,3,2,2,2,"_",5,5,5,5,"|",5,4,3,2]]],"numberofstrings":6,"notes":["E","B","G","D","A","E","B"],"capo":0,"stringnotes":["E4","B3","G3","D3","A2","E2"],"comments":["Stave 1:","Stave 2:"],"timing":[["W","W","W","W","W",null,null,"W","W","W","W","W",null,null,null,"W","W","W","W","W","W","W","W","W",null,null,"W","W","W","W","W"],["W","W","W","W","W","W","W","W","W","W","W","W","W","W","W","W","W","W",null,"W","W","W","W"]],"timingvisible":false,"tabcounter":22,"stave":1,"totalstaves":2,"instrument":"6guitar","selectedtuning":"6_standard","version":"13"}

Member for

2 years 6 months
Submitted by Totite007 on Fri, 2019-12-06 00:00