heavy concept

01234567891011121314151617181920212223
E
B
G
D
A
E
B
0 1 2 3 4 5 6 7 8 9 10 11 12 13 14 15 16 17 18 19 20 21 22 23
(/) Slide Up  (\) Slide Down  (h) Hammer On  (p) Pull Off  (b) Bend (r) Release (v) Vibrato

Stave 1:

E|-----------------------------------------------------------------------------------------------------
B|-----------------------------------------------------------------------------------------------------
G|-----------------------------------------------------------------------------------------------------
D|--------0-----------0-----0-----0-----------0--------2-----------------0-----------0-----0-----0-----
A|-----1-----1-----3-----3-----3-----------1-----1-----2--------------1-----1-----3-----3-----3--------
E|--0-----------------------------------0--------------2-----------0-----------------------------------

Stave 2:

E|--------------------------------------------------------------------------------------
B|--------------------------------------------------------------------------------------
G|--------------------------------------------------------------------------------------
D|--------0--------0-----1--------------2--2--2--2--2--2--3--3--3--3--3--3--3--3--------
A|-----1-----1-----0-----1--------------0--0--2--0--2--0--3--3--3--3--3--3--3--3--------
E|--0--------------0-----1--------------------------------------------------------------

Stave 3:

E|-----------------------------------------------------------------------------------------------
B|-----------------------------------------------------------------------------------------------
G|-----------------------------------------------------------------------------------------------
D|--2--2--2--2--2--2-----2--2--2--1--2--3--3--3--------2--2--2--2--2--2--3--3--3--3--3--3--3--3--
A|--0--0--2--0--2--0-----2--2--2--1--2--3--3--3--------0--0--2--0--2--0--3--3--3--3--3--3--3--3--
E|-----------------------2--2--2--1--2--3--3--3--------------------------------------------------

Stave 4:

E|-----------------------------------------------
B|-----------------------------------------------
G|-----------------------------------------------
D|--2--2--2--2--2--2-----0--0--0--0--0--1--1--1--
A|--0--0--2--0--2--0-----0--0--0--0--0--1--1--1--
E|-----------------------0--0--0--0--0--1--1--1--

							http://www.guitartabcreator.com
Chords

genre
Instruments
{"title":"heavy concept","strings":[[[".",".",".",".","_",".",".",".",".",".",".","_",".",".",".",".","_",".","_","_","_",".",".",".",".","_",".",".",".",".",".",".","_"],[".",".",".",".","_",".",".",".",".",".",".","_",".",".",".",".","_",".","_","_","_",".",".",".",".","_",".",".",".",".",".",".","_"],[".",".",".",".","_",".",".",".",".",".",".","_",".",".",".",".","_",".","_","_","_",".",".",".",".","_",".",".",".",".",".",".","_"],[".",".",0,".","_",".",0,".",0,".",0,"_",".",".",0,".","_",2,"_","_","_",".",".",0,".","_",".",0,".",0,".",0,"_"],[".",1,".",1,"_",3,".",3,".",3,".","_",".",1,".",1,"_",2,"_","_","_",".",1,".",1,"_",3,".",3,".",3,".","_"],[0,".",".",".","_",".",".",".",".",".",".","_",0,".",".",".","_",2,"_","_","_",0,".",".",".","_",".",".",".",".",".",".","_"]],[[".",".",".",".","_",".","_",".","_","_","_","_",".",".",".",".",".",".",".",".",".",".",".",".",".",".","_","_"],[".",".",".",".","_",".","_",".","_","_","_","_",".",".",".",".",".",".",".",".",".",".",".",".",".",".","_","_"],[".",".",".",".","_",".","_",".","_","_","_","_",".",".",".",".",".",".",".",".",".",".",".",".",".",".","_","_"],[".",".",0,".","_",0,"_",1,"_","_","_","_",2,2,2,2,2,2,3,3,3,3,3,3,3,3,"_","_"],[".",1,".",1,"_",0,"_",1,"_","_","_","_",0,0,2,0,2,0,3,3,3,3,3,3,3,3,"_","_"],[0,".",".",".","_",0,"_",1,"_","_","_","_",".",".",".",".",".",".",".",".",".",".",".",".",".",".","_","_"]],[[".",".",".",".",".",".","_",".",".",".",".",".",".",".",".","_","_",".",".",".",".",".",".",".",".",".",".",".",".",".","."],[".",".",".",".",".",".","_",".",".",".",".",".",".",".",".","_","_",".",".",".",".",".",".",".",".",".",".",".",".",".","."],[".",".",".",".",".",".","_",".",".",".",".",".",".",".",".","_","_",".",".",".",".",".",".",".",".",".",".",".",".",".","."],[2,2,2,2,2,2,"_",2,2,2,1,2,3,3,3,"_","_",2,2,2,2,2,2,3,3,3,3,3,3,3,3],[0,0,2,0,2,0,"_",2,2,2,1,2,3,3,3,"_","_",0,0,2,0,2,0,3,3,3,3,3,3,3,3],[".",".",".",".",".",".","_",2,2,2,1,2,3,3,3,"_","_",".",".",".",".",".",".",".",".",".",".",".",".",".","."]],[[".",".",".",".",".",".","_",".",".",".",".",".",".",".","."],[".",".",".",".",".",".","_",".",".",".",".",".",".",".","."],[".",".",".",".",".",".","_",".",".",".",".",".",".",".","."],[2,2,2,2,2,2,"_",0,0,0,0,0,1,1,1],[0,0,2,0,2,0,"_",0,0,0,0,0,1,1,1],[".",".",".",".",".",".","_",0,0,0,0,0,1,1,1]]],"numberofstrings":6,"notes":["E","B","G","D","A","E"],"capo":0,"stringnotes":["E3","B2","G2","D2","A1","E1"],"comments":["Stave 1:","Stave 2:","Stave 3:","Stave 4:"],"timing":[["W","W","W","W",null,"W","W","W","W","W","W",null,"W","W","W","W","W","W",null,null,null,"W","W","W","W",null,"W","W","W","W","W","W",null,"W","W","W"],["W","W","W","W",null,"W",null,"W","W",null,null,null,"W","W","W","W","W","W","W","W","W","W","W","W","W","W"],["W","W","W","W","W","W",null,"W","W","W","W","W","W","W","W",null,null,"W","W","W","W","W","W","W","W","W","W","W","W","W","W"],["W","W","W","W","W","W","W","W","W","W","W","W","W","W","W"]],"timingvisible":false,"tabcounter":15,"stave":3,"totalstaves":4,"instrument":"6guitar","selectedtuning":"6_standard","version":"13"}

Member for

2 years 6 months
Submitted by Totite007 on Thu, 2020-01-23 08:55