groin

01234567891011121314151617181920212223
E
B
G
D
A
E
B
0 1 2 3 4 5 6 7 8 9 10 11 12 13 14 15 16 17 18 19 20 21 22 23
(/) Slide Up  (\) Slide Down  (h) Hammer On  (p) Pull Off  (b) Bend (r) Release (v) Vibrato

Stave 1:

E|-----------------------------------------------------------------------------------------------
B|-----------------------------------------------------------------------------------------------
G|-----------------------------------------------------------------------------------------------
D|--3--3--5\3-----3--3--5\3-----3--3--5\3-----3--3--2--2--3--3--5\3-----3--3--5\3-----3--3--5\3--
A|--3--3----------3--3----------3--3----------3--3--2--2--3--3----------3--3----------3--3-------
E|--3--3----------3--3----------3--3----------3--3--2--2--3--3----------3--3----------3--3-------

Stave 2:

E|---------------------------------------------------------------------------------------------
B|---------------------------------------------------------------------------------------------
G|---------------------------------------------------------------------------------------------
D|--3--3--2--2--5--5--5/7-----5--5--9\7-----5--5--5/7-----5--5--3--3--5--5--5/7-----5--5--9\7--
A|--3--3--2--2--5--5----------5--5----------5--5----------5--5--3--3--5--5----------5--5-------
E|--3--3--2--2--5--5----------5--5----------5--5----------5--5--3--3--5--5----------5--5-------

Stave 3:

E|----------------
B|----------------
G|----------------
D|--5--5--5/7-----
A|--5--5----------
E|--5--5----------

							http://www.guitartabcreator.com
Chords

Instruments
{"title":"","strings":[[[".",".",".",".",".","_",".",".",".",".",".","_",".",".",".",".",".","_",".",".",".",".",".",".",".",".",".","_",".",".",".",".",".","_",".",".",".",".","."],[".",".",".",".",".","_",".",".",".",".",".","_",".",".",".",".",".","_",".",".",".",".",".",".",".",".",".","_",".",".",".",".",".","_",".",".",".",".","."],[".",".",".",".",".","_",".",".",".",".",".","_",".",".",".",".",".","_",".",".",".",".",".",".",".",".",".","_",".",".",".",".",".","_",".",".",".",".","."],[3,3,5,"\\",3,"_",3,3,5,"\\",3,"_",3,3,5,"\\",3,"_",3,3,2,2,3,3,5,"\\",3,"_",3,3,5,"\\",3,"_",3,3,5,"\\",3],[3,3,".",".",".","_",3,3,".",".",".","_",3,3,".",".",".","_",3,3,2,2,3,3,".",".",".","_",3,3,".",".",".","_",3,3,".",".","."],[3,3,".",".",".","_",3,3,".",".",".","_",3,3,".",".",".","_",3,3,2,2,3,3,".",".",".","_",3,3,".",".",".","_",3,3,".",".","."]],[[".",".",".",".",".",".",".",".",".","_",".",".",".",".",".","_",".",".",".",".",".","_",".",".",".",".",".",".",".",".",".","_",".",".",".",".","."],[".",".",".",".",".",".",".",".",".","_",".",".",".",".",".","_",".",".",".",".",".","_",".",".",".",".",".",".",".",".",".","_",".",".",".",".","."],[".",".",".",".",".",".",".",".",".","_",".",".",".",".",".","_",".",".",".",".",".","_",".",".",".",".",".",".",".",".",".","_",".",".",".",".","."],[3,3,2,2,5,5,5,"/",7,"_",5,5,9,"\\",7,"_",5,5,5,"/",7,"_",5,5,3,3,5,5,5,"/",7,"_",5,5,9,"\\",7],[3,3,2,2,5,5,".",".",".","_",5,5,".",".",".","_",5,5,".",".",".","_",5,5,3,3,5,5,".",".",".","_",5,5,".",".","."],[3,3,2,2,5,5,".",".",".","_",5,5,".",".",".","_",5,5,".",".",".","_",5,5,3,3,5,5,".",".",".","_",5,5,".",".","."]],[[".",".",".",".",".","_"],[".",".",".",".",".","_"],[".",".",".",".",".","_"],[5,5,5,"/",7,"_"],[5,5,".",".",".","_"],[5,5,".",".",".","_"]]],"numberofstrings":6,"notes":["E","B","G","D","A","E","B"],"capo":0,"stringnotes":["E4","B3","G3","D3","A2","E2"],"comments":["Stave 1:","Stave 2:","Stave 3:"],"timing":[["W","W","W",null,"W",null,"W","W","W",null,"W",null,"W","W","W",null,"W",null,"W","W","W","W","W","W","W",null,"W",null,"W","W","W",null,"W",null,"W","W","W",null,"W"],["W","W","W","W","W","W","W",null,"W",null,"W","W","W",null,"W",null,"W","W","W",null,"W",null,"W","W","W","W","W","W","W",null,"W",null,"W","W","W",null,"W"],["W","W","W",null,"W"]],"timingvisible":false,"tabcounter":6,"stave":2,"totalstaves":3,"instrument":"6guitar","selectedtuning":"6_standard","version":"13"}

Member for

2 years 6 months
Submitted by Totite007 on Thu, 2020-03-26 08:15